  0
SECTION
  2
HEADER
  9
$ACADVER
  1
AC1015
  9
$ACADMAINTVER
 70
     6
  9
$DWGCODEPAGE
  3
ANSI_1252
  9
$INSBASE
 10
0.0
 20
0.0
 30
0.0
  9
$EXTMIN
 10
0.0
 20
0.0
 30
0.0
  9
$EXTMAX
 10
11.0
 20
8.5
 30
0.0
  9
$LIMMIN
 10
0.0
 20
0.0
  9
$LIMMAX
 10
11.0
 20
8.5
  9
$ORTHOMODE
 70
     0
  9
$REGENMODE
 70
     1
  9
$FILLMODE
 70
     1
  9
$QTEXTMODE
 70
     0
  9
$MIRRTEXT
 70
     1
  9
$LTSCALE
 40
1.0
  9
$ATTMODE
 70
     1
  9
$TEXTSIZE
 40
0.125
  9
$TRACEWID
 40
0.05
  9
$TEXTSTYLE
  7
Standard
  9
$CLAYER
  8
0
  9
$CELTYPE
  6
ByLayer
  9
$CECOLOR
 62
   256
  9
$CELTSCALE
 40
1.0
  9
$DISPSILH
 70
     0
  9
$DIMSCALE
 40
1.0
  9
$DIMASZ
 40
0.13
  9
$DIMEXO
 40
0.05
  9
$DIMDLI
 40
0.38
  9
$DIMRND
 40
0.0
  9
$DIMDLE
 40
0.0
  9
$DIMEXE
 40
0.125
  9
$DIMTP
 40
0.0
  9
$DIMTM
 40
0.0
  9
$DIMTXT
 40
0.125
  9
$DIMCEN
 40
0.09
  9
$DIMTSZ
 40
0.0
  9
$DIMTOL
 70
     0
  9
$DIMLIM
 70
     0
  9
$DIMTIH
 70
     1
  9
$DIMTOH
 70
     1
  9
$DIMSE1
 70
     0
  9
$DIMSE2
 70
     0
  9
$DIMTAD
 70
     0
  9
$DIMZIN
 70
     0
  9
$DIMBLK
  1

  9
$DIMASO
 70
     1
  9
$DIMSHO
 70
     1
  9
$DIMPOST
  1

  9
$DIMAPOST
  1

  9
$DIMALT
 70
     0
  9
$DIMALTD
 70
     2
  9
$DIMALTF
 40
25.4
  9
$DIMLFAC
 40
32.0
  9
$DIMTOFL
 70
     0
  9
$DIMTVP
 40
0.0
  9
$DIMTIX
 70
     0
  9
$DIMSOXD
 70
     0
  9
$DIMSAH
 70
     0
  9
$DIMBLK1
  1

  9
$DIMBLK2
  1

  9
$DIMSTYLE
  2
Standard
  9
$DIMCLRD
 70
     0
  9
$DIMCLRE
 70
     0
  9
$DIMCLRT
 70
     0
  9
$DIMTFAC
 40
1.0
  9
$DIMGAP
 40
0.06
  9
$DIMJUST
 70
     0
  9
$DIMSD1
 70
     0
  9
$DIMSD2
 70
     0
  9
$DIMTOLJ
 70
     1
  9
$DIMTZIN
 70
     0
  9
$DIMALTZ
 70
     0
  9
$DIMALTTZ
 70
     0
  9
$DIMUPT
 70
     0
  9
$DIMDEC
 70
     2
  9
$DIMTDEC
 70
     2
  9
$DIMALTU
 70
     2
  9
$DIMALTTD
 70
     2
  9
$DIMTXSTY
  7
Standard
  9
$DIMAUNIT
 70
     0
  9
$DIMADEC
 70
     2
  9
$DIMALTRND
 40
0.0
  9
$DIMAZIN
 70
     0
  9
$DIMDSEP
 70
    46
  9
$DIMATFIT
 70
     3
  9
$DIMFRAC
 70
     0
  9
$DIMLDRBLK
  1

  9
$DIMLUNIT
 70
     2
  9
$DIMLWD
 70
    -2
  9
$DIMLWE
 70
    -2
  9
$DIMTMOVE
 70
     0
  9
$LUNITS
 70
     2
  9
$LUPREC
 70
     2
  9
$SKETCHINC
 40
0.1
  9
$FILLETRAD
 40
0.5
  9
$AUNITS
 70
     0
  9
$AUPREC
 70
     2
  9
$MENU
  1
.
  9
$ELEVATION
 40
0.0
  9
$PELEVATION
 40
0.0
  9
$THICKNESS
 40
0.0
  9
$LIMCHECK
 70
     0
  9
$CHAMFERA
 40
0.5
  9
$CHAMFERB
 40
0.5
  9
$CHAMFERC
 40
1.0
  9
$CHAMFERD
 40
0.0
  9
$SKPOLY
 70
     0
  9
$TDCREATE
 40
2458159.692985185
  9
$TDUCREATE
 40
2458160.026318518
  9
$TDUPDATE
 40
2458159.692987014
  9
$TDUUPDATE
 40
2458160.026320347
  9
$TDINDWG
 40
0.0000000116
  9
$TDUSRTIMER
 40
0.0000000116
  9
$USRTIMER
 70
     1
  9
$ANGBASE
 50
0.0
  9
$ANGDIR
 70
     0
  9
$PDMODE
 70
     0
  9
$PDSIZE
 40
-1.0
  9
$PLINEWID
 40
0.0
  9
$SPLFRAME
 70
     0
  9
$SPLINETYPE
 70
     6
  9
$SPLINESEGS
 70
     8
  9
$HANDSEED
  5
24C
  9
$SURFTAB1
 70
     6
  9
$SURFTAB2
 70
     6
  9
$SURFTYPE
 70
     6
  9
$SURFU
 70
     6
  9
$SURFV
 70
     6
  9
$UCSBASE
  2

  9
$UCSNAME
  2

  9
$UCSORG
 10
0.0
 20
0.0
 30
0.0
  9
$UCSXDIR
 10
1.0
 20
0.0
 30
0.0
  9
$UCSYDIR
 10
0.0
 20
1.0
 30
0.0
  9
$UCSORTHOREF
  2

  9
$UCSORTHOVIEW
 70
     0
  9
$UCSORGTOP
 10
0.0
 20
0.0
 30
0.0
  9
$UCSORGBOTTOM
 10
0.0
 20
0.0
 30
0.0
  9
$UCSORGLEFT
 10
0.0
 20
0.0
 30
0.0
  9
$UCSORGRIGHT
 10
0.0
 20
0.0
 30
0.0
  9
$UCSORGFRONT
 10
0.0
 20
0.0
 30
0.0
  9
$UCSORGBACK
 10
0.0
 20
0.0
 30
0.0
  9
$PUCSBASE
  2

  9
$PUCSNAME
  2

  9
$PUCSORG
 10
0.0
 20
0.0
 30
0.0
  9
$PUCSXDIR
 10
1.0
 20
0.0
 30
0.0
  9
$PUCSYDIR
 10
0.0
 20
1.0
 30
0.0
  9
$PUCSORTHOREF
  2

  9
$PUCSORTHOVIEW
 70
     0
  9
$PUCSORGTOP
 10
0.0
 20
0.0
 30
0.0
  9
$PUCSORGBOTTOM
 10
0.0
 20
0.0
 30
0.0
  9
$PUCSORGLEFT
 10
0.0
 20
0.0
 30
0.0
  9
$PUCSORGRIGHT
 10
0.0
 20
0.0
 30
0.0
  9
$PUCSORGFRONT
 10
0.0
 20
0.0
 30
0.0
  9
$PUCSORGBACK
 10
0.0
 20
0.0
 30
0.0
  9
$USERI1
 70
     0
  9
$USERI2
 70
     0
  9
$USERI3
 70
     0
  9
$USERI4
 70
     0
  9
$USERI5
 70
     0
  9
$USERR1
 40
0.0
  9
$USERR2
 40
0.0
  9
$USERR3
 40
0.0
  9
$USERR4
 40
0.0
  9
$USERR5
 40
0.0
  9
$WORLDVIEW
 70
     1
  9
$SHADEDGE
 70
     3
  9
$SHADEDIF
 70
    70
  9
$TILEMODE
 70
     1
  9
$MAXACTVP
 70
    64
  9
$PINSBASE
 10
0.0
 20
0.0
 30
0.0
  9
$PLIMCHECK
 70
     0
  9
$PEXTMIN
 10
1.0000000000E+20
 20
1.0000000000E+20
 30
1.0000000000E+20
  9
$PEXTMAX
 10
-1.0000000000E+20
 20
-1.0000000000E+20
 30
-1.0000000000E+20
  9
$PLIMMIN
 10
0.0
 20
0.0
  9
$PLIMMAX
 10
12.0
 20
9.0
  9
$UNITMODE
 70
     0
  9
$VISRETAIN
 70
     1
  9
$PLINEGEN
 70
     0
  9
$PSLTSCALE
 70
     1
  9
$TREEDEPTH
 70
  3020
  9
$CMLSTYLE
  2
Standard
  9
$CMLJUST
 70
     0
  9
$CMLSCALE
 40
1.0
  9
$PROXYGRAPHICS
 70
     1
  9
$MEASUREMENT
 70
     0
  9
$CELWEIGHT
370
    -1
  9
$ENDCAPS
280
     0
  9
$JOINSTYLE
280
     0
  9
$LWDISPLAY
290
     1
  9
$INSUNITS
 70
     1
  9
$HYPERLINKBASE
  1

  9
$STYLESHEET
  1

  9
$XEDIT
290
     1
  9
$CEPSNTYPE
380
     0
  9
$PSTYLEMODE
290
     1
  9
$FINGERPRINTGUID
  2
{E0A530AE-9977-45D2-B5E8-26417C28B297}
  9
$VERSIONGUID
  2
{FAEB1C32-E019-11D5-929B-00C0DF256EC4}
  9
$EXTNAMES
290
     1
  9
$PSVPSCALE
 40
0.0
  9
$OLESTARTUP
290
     0
  0
ENDSEC
  0
SECTION
  2
CLASSES
  0
CLASS
  1
ACDBDICTIONARYWDFLT
  2
AcDbDictionaryWithDefault
  3
ObjectDBX Classes
 90
        0
280
     0
281
     0
  0
CLASS
  1
VISUALSTYLE
  2
AcDbVisualStyle
  3
ObjectDBX Classes
 90
     4095
280
     0
281
     0
  0
CLASS
  1
MATERIAL
  2
AcDbMaterial
  3
ObjectDBX Classes
 90
     1153
280
     0
281
     0
  0
CLASS
  1
ACDBPLACEHOLDER
  2
AcDbPlaceHolder
  3
ObjectDBX Classes
 90
        0
280
     0
281
     0
  0
CLASS
  1
LAYOUT
  2
AcDbLayout
  3
ObjectDBX Classes
 90
        0
280
     0
281
     0
  0
ENDSEC
  0
SECTION
  2
TABLES
  0
TABLE
  2
VPORT
  5
8
330
0
100
AcDbSymbolTable
 70
     1
  0
VPORT
  5
29
330
8
100
AcDbSymbolTableRecord
100
AcDbViewportTableRecord
  2
*Active
 70
     0
 10
0.0
 20
0.0
 11
1.0
 21
1.0
 12
5.5
 22
4.25
 13
0.0
 23
0.0
 14
0.5
 24
0.5
 15
0.5
 25
0.5
 16
0.0
 26
0.0
 36
1.0
 17
0.0
 27
0.0
 37
0.0
 40
8.5
 41
1.2941176471
 42
50.0
 43
0.0
 44
0.0
 50
0.0
 51
0.0
 71
     0
 72
  2000
 73
     1
 74
     3
 75
     0
 76
     0
 77
     0
 78
     0
281
     0
 65
     1
110
0.0
120
0.0
130
0.0
111
1.0
121
0.0
131
0.0
112
0.0
122
1.0
132
0.0
 79
     0
146
0.0
  0
ENDTAB
  0
TABLE
  2
LTYPE
  5
5
330
0
100
AcDbSymbolTable
 70
     6
  0
LTYPE
  5
14
330
5
100
AcDbSymbolTableRecord
100
AcDbLinetypeTableRecord
  2
ByBlock
 70
     0
  3

 72
    65
 73
     0
 40
0.0
  0
LTYPE
  5
15
330
5
100
AcDbSymbolTableRecord
100
AcDbLinetypeTableRecord
  2
ByLayer
 70
     0
  3

 72
    65
 73
     0
 40
0.0
  0
LTYPE
  5
16
330
5
100
AcDbSymbolTableRecord
100
AcDbLinetypeTableRecord
  2
Continuous
 70
     0
  3
Solid line
 72
    65
 73
     0
 40
0.0
  0
LTYPE
  5
3F
330
5
100
AcDbSymbolTableRecord
100
AcDbLinetypeTableRecord
  2
HIDDEN
 70
     0
  3
Hidden __ __ __ __ __ __ __ __ __ __ __ __ __ __
 72
    65
 73
     2
 40
0.075
 49
0.05
 74
     0
 49
-0.025
 74
     0
  0
LTYPE
  5
40
330
5
100
AcDbSymbolTableRecord
100
AcDbLinetypeTableRecord
  2
PHANTOM
 70
     0
  3
Phantom ______  __  __  ______  __  __  ______
 72
    65
 73
     6
 40
0.5
 49
0.25
 74
     0
 49
-0.05
 74
     0
 49
0.05
 74
     0
 49
-0.05
 74
     0
 49
0.05
 74
     0
 49
-0.05
 74
     0
  0
LTYPE
  5
41
330
5
100
AcDbSymbolTableRecord
100
AcDbLinetypeTableRecord
  2
CENTER
 70
     0
  3
Center ____ _ ____ _ ____ _ ____ _ ____ _ ____
 72
    65
 73
     4
 40
0.4
 49
0.25
 74
     0
 49
-0.05
 74
     0
 49
0.05
 74
     0
 49
-0.05
 74
     0
  0
LTYPE
  5
42
330
5
100
AcDbSymbolTableRecord
100
AcDbLinetypeTableRecord
  2
CENTERX2
 70
     0
  3
Center (2x) ________  __  ________  __  _____
 72
    65
 73
     4
 40
0.8
 49
0.5
 74
     0
 49
-0.1
 74
     0
 49
0.1
 74
     0
 49
-0.1
 74
     0
  0
LTYPE
  5
43
330
5
100
AcDbSymbolTableRecord
100
AcDbLinetypeTableRecord
  2
DOT2
 70
     0
  3
Dot (.5x) ........................................
 72
    65
 73
     2
 40
0.025
 49
0.0
 74
     0
 49
-0.025
 74
     0
  0
ENDTAB
  0
TABLE
  2
LAYER
  5
2
330
0
100
AcDbSymbolTable
 70
     1
  0
LAYER
  5
10
330
2
100
AcDbSymbolTableRecord
100
AcDbLayerTableRecord
  2
0
 70
     0
 62
     7
  6
Continuous
370
    -3
390
F
  0
ENDTAB
  0
TABLE
  2
STYLE
  5
3
330
0
100
AcDbSymbolTable
 70
     2
  0
STYLE
  5
11
330
3
100
AcDbSymbolTableRecord
100
AcDbTextStyleTableRecord
  2
Standard
 70
     0
 40
0.0
 41
1.0
 50
0.0
 71
     0
 42
0.125
  3
txt
  4

  0
STYLE
  5
49
330
3
100
AcDbSymbolTableRecord
100
AcDbTextStyleTableRecord
  2
SLDTEXTSTYLE0
 70
     0
 40
0.0
 41
0.605
 50
0.0
 71
     0
 42
0.2
  3
TXT
  4

  0
ENDTAB
  0
TABLE
  2
VIEW
  5
6
330
0
100
AcDbSymbolTable
 70
     0
  0
ENDTAB
  0
TABLE
  2
UCS
  5
7
330
0
100
AcDbSymbolTable
 70
     0
  0
ENDTAB
  0
TABLE
  2
APPID
  5
9
330
0
100
AcDbSymbolTable
 70
     1
  0
APPID
  5
12
330
9
100
AcDbSymbolTableRecord
100
AcDbRegAppTableRecord
  2
ACAD
 70
     0
  0
ENDTAB
  0
TABLE
  2
DIMSTYLE
  5
A
330
0
100
AcDbSymbolTable
 70
     2
100
AcDbDimStyleTable
  0
DIMSTYLE
105
27
330
A
100
AcDbSymbolTableRecord
100
AcDbDimStyleTableRecord
  2
Standard
 70
     0
178
     0
340
11
  0
DIMSTYLE
105
1FE
330
A
100
AcDbSymbolTableRecord
100
AcDbDimStyleTableRecord
  2
SLDDIMSTYLE0
 70
     0
 41
0.13
 44
0.0
 45
0.000000001
140
0.0
146
0.13
147
0.0
173
     1
178
     0
271
     0
272
     0
276
     2
340
11
  0
ENDTAB
  0
TABLE
  2
BLOCK_RECORD
  5
1
330
0
100
AcDbSymbolTable
 70
    12
  0
BLOCK_RECORD
  5
1F
330
1
100
AcDbSymbolTableRecord
100
AcDbBlockTableRecord
  2
*Model_Space
340
22
  0
BLOCK_RECORD
  5
1B
330
1
100
AcDbSymbolTableRecord
100
AcDbBlockTableRecord
  2
*Paper_Space
340
1E
  0
BLOCK_RECORD
  5
23
330
1
100
AcDbSymbolTableRecord
100
AcDbBlockTableRecord
  2
*Paper_Space0
340
26
  0
BLOCK_RECORD
  5
46
330
1
100
AcDbSymbolTableRecord
100
AcDbBlockTableRecord
  2
SW_NOTE_0
340
0
102
{BLKREFS
331
4C
102
}
  0
BLOCK_RECORD
  5
1F4
330
1
100
AcDbSymbolTableRecord
100
AcDbBlockTableRecord
  2
SW_NOTE_1
340
0
102
{BLKREFS
331
1FD
102
}
  0
BLOCK_RECORD
  5
200
330
1
100
AcDbSymbolTableRecord
100
AcDbBlockTableRecord
  2
SW_NOTE_2
340
0
102
{BLKREFS
331
205
102
}
  0
BLOCK_RECORD
  5
209
330
1
100
AcDbSymbolTableRecord
100
AcDbBlockTableRecord
  2
SW_NOTE_3
340
0
102
{BLKREFS
331
213
102
}
  0
BLOCK_RECORD
  5
215
330
1
100
AcDbSymbolTableRecord
100
AcDbBlockTableRecord
  2
SW_NOTE_4
340
0
102
{BLKREFS
331
21B
102
}
  0
BLOCK_RECORD
  5
21D
330
1
100
AcDbSymbolTableRecord
100
AcDbBlockTableRecord
  2
SW_NOTE_5
340
0
102
{BLKREFS
331
222
102
}
  0
BLOCK_RECORD
  5
224
330
1
100
AcDbSymbolTableRecord
100
AcDbBlockTableRecord
  2
SW_NOTE_6
340
0
102
{BLKREFS
331
22A
102
}
  0
BLOCK_RECORD
  5
22C
330
1
100
AcDbSymbolTableRecord
100
AcDbBlockTableRecord
  2
SW_NOTE_7
340
0
102
{BLKREFS
331
232
102
}
  0
BLOCK_RECORD
  5
234
330
1
100
AcDbSymbolTableRecord
100
AcDbBlockTableRecord
  2
SW_NOTE_8
340
0
102
{BLKREFS
331
23A
102
}
  0
BLOCK_RECORD
  5
23C
330
1
100
AcDbSymbolTableRecord
100
AcDbBlockTableRecord
  2
SW_NOTE_9
340
0
102
{BLKREFS
331
242
102
}
  0
BLOCK_RECORD
  5
244
330
1
100
AcDbSymbolTableRecord
100
AcDbBlockTableRecord
  2
SW_NOTE_10
340
0
102
{BLKREFS
331
24A
102
}
  0
ENDTAB
  0
ENDSEC
  0
SECTION
  2
BLOCKS
  0
BLOCK
  5
20
330
1F
100
AcDbEntity
  8
0
100
AcDbBlockBegin
  2
*Model_Space
 70
     0
 10
0.0
 20
0.0
 30
0.0
  3
*Model_Space
  1

  0
ENDBLK
  5
21
330
1F
100
AcDbEntity
  8
0
100
AcDbBlockEnd
  0
BLOCK
  5
1C
330
1B
100
AcDbEntity
 67
     1
  8
0
100
AcDbBlockBegin
  2
*Paper_Space
 70
     0
 10
0.0
 20
0.0
 30
0.0
  3
*Paper_Space
  1

  0
ENDBLK
  5
1D
330
1B
100
AcDbEntity
 67
     1
  8
0
100
AcDbBlockEnd
  0
BLOCK
  5
24
330
23
100
AcDbEntity
  8
0
100
AcDbBlockBegin
  2
*Paper_Space0
 70
     0
 10
0.0
 20
0.0
 30
0.0
  3
*Paper_Space0
  1

  0
ENDBLK
  5
25
330
23
100
AcDbEntity
  8
0
100
AcDbBlockEnd
  0
BLOCK
  5
47
330
46
100
AcDbEntity
  8
0
100
AcDbBlockBegin
  2
SW_NOTE_0
 70
     0
 10
0.0
 20
0.0
 30
0.0
  3
SW_NOTE_0
  1

  0
MTEXT
  5
4A
330
46
100
AcDbEntity
  8
0
  6
Continuous
 62
     0
370
     0
100
AcDbMText
 10
2.20703125
 20
0.2685557791
 30
0.0
 40
0.2083333333
 41
0.0
 71
     2
 72
     1
  1
REFRIGERANT PIPING DIAGRAM
  7
SLDTEXTSTYLE0
 73
     1
 44
1.0
  0
MTEXT
  5
4B
330
46
100
AcDbEntity
  8
0
  6
Continuous
 62
     0
370
     0
100
AcDbMText
 10
2.2206558072
 20
-0.2869997697
 30
0.0
 40
0.2083333333
 41
0.0
 71
     2
 72
     1
  1
MECHANICAL SERVICE STATION ROOF ENCLOSURE
  7
SLDTEXTSTYLE0
 73
     1
 44
1.0
  0
ENDBLK
  5
48
330
46
100
AcDbEntity
  8
0
100
AcDbBlockEnd
  0
BLOCK
  5
1F5
330
1F4
100
AcDbEntity
  8
0
100
AcDbBlockBegin
  2
SW_NOTE_1
 70
     0
 10
0.0
 20
0.0
 30
0.0
  3
SW_NOTE_1
  1

  0
MTEXT
  5
1F7
330
1F4
100
AcDbEntity
  8
0
  6
Continuous
 62
     0
370
     0
100
AcDbMText
 10
-1.7269470809
 20
0.6052102797
 30
0.0
 40
0.0833333333
 41
0.0
 71
     1
 72
     1
  1
EXTERIOR WALL OR PARAPET WALL
  7
SLDTEXTSTYLE0
 73
     1
 44
1.0
  0
MTEXT
  5
1F8
330
1F4
100
AcDbEntity
  8
0
  6
Continuous
 62
     0
370
     0
100
AcDbMText
 10
-1.7269470809
 20
0.4940991699
 30
0.0
 40
0.0833333333
 41
0.0
 71
     1
 72
     1
  1
SEAL PENETRATION OUTLET WITH
  7
SLDTEXTSTYLE0
 73
     1
 44
1.0
  0
MTEXT
  5
1F9
330
1F4
100
AcDbEntity
  8
0
  6
Continuous
 62
     0
370
     0
100
AcDbMText
 10
-1.7269470809
 20
0.3829880602
 30
0.0
 40
0.0833333333
 41
0.0
 71
     1
 72
     1
  1
ELASTOMERIC LINE-SET
  7
SLDTEXTSTYLE0
 73
     1
 44
1.0
  0
MTEXT
  5
1FA
330
1F4
100
AcDbEntity
  8
0
  6
Continuous
 62
     0
370
     0
100
AcDbMText
 10
-1.7269470809
 20
0.2718769504
 30
0.0
 40
0.0833333333
 41
0.0
 71
     1
 72
     1
  1
COMPRESSION SLEEVE
  7
SLDTEXTSTYLE0
 73
     1
 44
1.0
  0
MTEXT
  5
1FB
330
1F4
100
AcDbEntity
  8
0
  6
Continuous
 62
     0
370
     0
100
AcDbMText
 10
-1.7269470809
 20
0.1607658406
 30
0.0
 40
0.0833333333
 41
0.0
 71
     1
 72
     1
  1
TYPE "AIREX TITAN OUTLET" BY
  7
SLDTEXTSTYLE0
 73
     1
 44
1.0
  0
MTEXT
  5
1FC
330
1F4
100
AcDbEntity
  8
0
  6
Continuous
 62
     0
370
     0
100
AcDbMText
 10
-1.7269470809
 20
0.0496547309
 30
0.0
 40
0.0833333333
 41
0.0
 71
     1
 72
     1
  1
AIREX MANUFACTURING INC.
  7
SLDTEXTSTYLE0
 73
     1
 44
1.0
  0
ENDBLK
  5
1F6
330
1F4
100
AcDbEntity
  8
0
100
AcDbBlockEnd
  0
BLOCK
  5
201
330
200
100
AcDbEntity
  8
0
100
AcDbBlockBegin
  2
SW_NOTE_2
 70
     0
 10
0.0
 20
0.0
 30
0.0
  3
SW_NOTE_2
  1

  0
MTEXT
  5
203
330
200
100
AcDbEntity
  8
0
  6
Continuous
 62
     0
370
     0
100
AcDbMText
 10
-1.0607955417
 20
0.1564256097
 30
0.0
 40
0.0833333333
 41
0.0
 71
     1
 72
     1
  1
OUTDOOR
  7
SLDTEXTSTYLE0
 73
     1
 44
1.0
  0
MTEXT
  5
204
330
200
100
AcDbEntity
  8
0
  6
Continuous
 62
     0
370
     0
100
AcDbMText
 10
-1.0607955417
 20
0.0453144999
 30
0.0
 40
0.0833333333
 41
0.0
 71
     1
 72
     1
  1
CONDENSING UNIT
  7
SLDTEXTSTYLE0
 73
     1
 44
1.0
  0
ENDBLK
  5
202
330
200
100
AcDbEntity
  8
0
100
AcDbBlockEnd
  0
BLOCK
  5
20A
330
209
100
AcDbEntity
  8
0
100
AcDbBlockBegin
  2
SW_NOTE_3
 70
     0
 10
0.0
 20
0.0
 30
0.0
  3
SW_NOTE_3
  1

  0
LINE
  5
20C
330
209
100
AcDbEntity
  8
0
  6
Continuous
 62
     0
370
     0
100
AcDbLine
 10
-1.0084946278
 20
0.0
 30
0.0
 11
0.0
 21
0.0
 31
0.0
  0
LINE
  5
20D
330
209
100
AcDbEntity
  8
0
  6
Continuous
 62
     0
370
     0
100
AcDbLine
 10
0.0
 20
0.0
 30
0.0
 11
-1.0084946278
 21
0.0
 31
0.0
  0
LINE
  5
20E
330
209
100
AcDbEntity
  8
0
  6
Continuous
 62
     0
370
     0
100
AcDbLine
 10
-1.0084946278
 20
0.0
 30
0.0
 11
0.0
 21
0.0
 31
0.0
  0
LINE
  5
20F
330
209
100
AcDbEntity
  8
0
  6
Continuous
 62
     0
370
     0
100
AcDbLine
 10
0.0
 20
0.0
 30
0.0
 11
-1.0084946278
 21
0.0
 31
0.0
  0
LINE
  5
210
330
209
100
AcDbEntity
  8
0
  6
Continuous
 62
     0
370
     0
100
AcDbLine
 10
-1.0084946278
 20
0.0
 30
0.0
 11
0.0
 21
0.0
 31
0.0
  0
LINE
  5
211
330
209
100
AcDbEntity
  8
0
  6
Continuous
 62
     0
370
     0
100
AcDbLine
 10
0.0
 20
0.0
 30
0.0
 11
-1.0084946278
 21
0.0
 31
0.0
  0
MTEXT
  5
212
330
209
100
AcDbEntity
  8
0
  6
Continuous
 62
     0
370
     0
100
AcDbMText
 10
-1.0039824762
 20
0.0989789419
 30
0.0
 40
0.0833333333
 41
0.0
 71
     1
 72
     1
  1
ROOF MEMBRANE
  7
SLDTEXTSTYLE0
 73
     1
 44
1.0
  0
ENDBLK
  5
20B
330
209
100
AcDbEntity
  8
0
100
AcDbBlockEnd
  0
BLOCK
  5
216
330
215
100
AcDbEntity
  8
0
100
AcDbBlockBegin
  2
SW_NOTE_4
 70
     0
 10
0.0
 20
0.0
 30
0.0
  3
SW_NOTE_4
  1

  0
MTEXT
  5
218
330
215
100
AcDbEntity
  8
0
  6
Continuous
 62
     0
370
     0
100
AcDbMText
 10
-1.8152363597
 20
0.2707230896
 30
0.0
 40
0.0833333333
 41
0.0
 71
     1
 72
     1
  1
INSULATION PROTECTIVE PVC COVER
  7
SLDTEXTSTYLE0
 73
     1
 44
1.0
  0
MTEXT
  5
219
330
215
100
AcDbEntity
  8
0
  6
Continuous
 62
     0
370
     0
100
AcDbMText
 10
-1.8152363597
 20
0.1596119798
 30
0.0
 40
0.0833333333
 41
0.0
 71
     1
 72
     1
  1
TYPE "AIREX E-FLEX GUARD"
  7
SLDTEXTSTYLE0
 73
     1
 44
1.0
  0
MTEXT
  5
21A
330
215
100
AcDbEntity
  8
0
  6
Continuous
 62
     0
370
     0
100
AcDbMText
 10
-1.8152363597
 20
0.0485008701
 30
0.0
 40
0.0833333333
 41
0.0
 71
     1
 72
     1
  1
BY AIREX MANUFACTURING INC.
  7
SLDTEXTSTYLE0
 73
     1
 44
1.0
  0
ENDBLK
  5
217
330
215
100
AcDbEntity
  8
0
100
AcDbBlockEnd
  0
BLOCK
  5
21E
330
21D
100
AcDbEntity
  8
0
100
AcDbBlockBegin
  2
SW_NOTE_5
 70
     0
 10
0.0
 20
0.0
 30
0.0
  3
SW_NOTE_5
  1

  0
MTEXT
  5
220
330
21D
100
AcDbEntity
  8
0
  6
Continuous
 62
     0
370
     0
100
AcDbMText
 10
0.0231105234
 20
0.043158563
 30
0.0
 40
0.0833333333
 41
0.0
 71
     1
 72
     1
  1
ROOF ENCLOSURE
  7
SLDTEXTSTYLE0
 73
     1
 44
1.0
  0
MTEXT
  5
221
330
21D
100
AcDbEntity
  8
0
  6
Continuous
 62
     0
370
     0
100
AcDbMText
 10
0.0231105234
 20
-0.0679525467
 30
0.0
 40
0.0833333333
 41
0.0
 71
     1
 72
     1
  1
MECHANICAL SERVICE STATION
  7
SLDTEXTSTYLE0
 73
     1
 44
1.0
  0
ENDBLK
  5
21F
330
21D
100
AcDbEntity
  8
0
100
AcDbBlockEnd
  0
BLOCK
  5
225
330
224
100
AcDbEntity
  8
0
100
AcDbBlockBegin
  2
SW_NOTE_6
 70
     0
 10
0.0
 20
0.0
 30
0.0
  3
SW_NOTE_6
  1

  0
MTEXT
  5
227
330
224
100
AcDbEntity
  8
0
  6
Continuous
 62
     0
370
     0
100
AcDbMText
 10
0.0206631702
 20
0.0383886462
 30
0.0
 40
0.0833333333
 41
0.0
 71
     1
 72
     1
  1
STAINLESS
  7
SLDTEXTSTYLE0
 73
     1
 44
1.0
  0
MTEXT
  5
228
330
224
100
AcDbEntity
  8
0
  6
Continuous
 62
     0
370
     0
100
AcDbMText
 10
0.0206631702
 20
-0.0727224636
 30
0.0
 40
0.0833333333
 41
0.0
 71
     1
 72
     1
  1
STEEL CLAMP
  7
SLDTEXTSTYLE0
 73
     1
 44
1.0
  0
MTEXT
  5
229
330
224
100
AcDbEntity
  8
0
  6
Continuous
 62
     0
370
     0
100
AcDbMText
 10
0.0206631702
 20
-0.1838335734
 30
0.0
 40
0.0833333333
 41
0.0
 71
     1
 72
     1
  1
PART OF COMPONENT "A"
  7
SLDTEXTSTYLE0
 73
     1
 44
1.0
  0
ENDBLK
  5
226
330
224
100
AcDbEntity
  8
0
100
AcDbBlockEnd
  0
BLOCK
  5
22D
330
22C
100
AcDbEntity
  8
0
100
AcDbBlockBegin
  2
SW_NOTE_7
 70
     0
 10
0.0
 20
0.0
 30
0.0
  3
SW_NOTE_7
  1

  0
MTEXT
  5
22F
330
22C
100
AcDbEntity
  8
0
  6
Continuous
 62
     0
370
     0
100
AcDbMText
 10
-1.4751017872
 20
0.264298935
 30
0.0
 40
0.0833333333
 41
0.0
 71
     1
 72
     1
  1
UV
  7
SLDTEXTSTYLE0
 73
     1
 44
1.0
  0
MTEXT
  5
230
330
22C
100
AcDbEntity
  8
0
  6
Continuous
 62
     0
370
     0
100
AcDbMText
 10
-1.4751017872
 20
0.1531878252
 30
0.0
 40
0.0833333333
 41
0.0
 71
     1
 72
     1
  1
CABLE TIES
  7
SLDTEXTSTYLE0
 73
     1
 44
1.0
  0
MTEXT
  5
231
330
22C
100
AcDbEntity
  8
0
  6
Continuous
 62
     0
370
     0
100
AcDbMText
 10
-1.4751017872
 20
0.0420767154
 30
0.0
 40
0.0833333333
 41
0.0
 71
     1
 72
     1
  1
PART OF COMPONENT "B"
  7
SLDTEXTSTYLE0
 73
     1
 44
1.0
  0
ENDBLK
  5
22E
330
22C
100
AcDbEntity
  8
0
100
AcDbBlockEnd
  0
BLOCK
  5
235
330
234
100
AcDbEntity
  8
0
100
AcDbBlockBegin
  2
SW_NOTE_8
 70
     0
 10
0.0
 20
0.0
 30
0.0
  3
SW_NOTE_8
  1

  0
MTEXT
  5
237
330
234
100
AcDbEntity
  8
0
  6
Continuous
 62
     0
370
     0
100
AcDbMText
 10
0.0204151251
 20
0.0400385479
 30
0.0
 40
0.0833333333
 41
0.0
 71
     1
 72
     1
  1
WALL SURFACE
  7
SLDTEXTSTYLE0
 73
     1
 44
1.0
  0
MTEXT
  5
238
330
234
100
AcDbEntity
  8
0
  6
Continuous
 62
     0
370
     0
100
AcDbMText
 10
0.0204151251
 20
-0.0710725619
 30
0.0
 40
0.0833333333
 41
0.0
 71
     1
 72
     1
  1
GASKET SEAL
  7
SLDTEXTSTYLE0
 73
     1
 44
1.0
  0
MTEXT
  5
239
330
234
100
AcDbEntity
  8
0
  6
Continuous
 62
     0
370
     0
100
AcDbMText
 10
0.0204151251
 20
-0.1821836717
 30
0.0
 40
0.0833333333
 41
0.0
 71
     1
 72
     1
  1
PART OF COMPONENT "A"
  7
SLDTEXTSTYLE0
 73
     1
 44
1.0
  0
ENDBLK
  5
236
330
234
100
AcDbEntity
  8
0
100
AcDbBlockEnd
  0
BLOCK
  5
23D
330
23C
100
AcDbEntity
  8
0
100
AcDbBlockBegin
  2
SW_NOTE_9
 70
     0
 10
0.0
 20
0.0
 30
0.0
  3
SW_NOTE_9
  1

  0
MTEXT
  5
23F
330
23C
100
AcDbEntity
  8
0
  6
Continuous
 62
     0
370
     0
100
AcDbMText
 10
-1.4722510283
 20
0.2686826906
 30
0.0
 40
0.0833333333
 41
0.0
 71
     1
 72
     1
  1
ALL MATERIAL
  7
SLDTEXTSTYLE0
 73
     1
 44
1.0
  0
MTEXT
  5
240
330
23C
100
AcDbEntity
  8
0
  6
Continuous
 62
     0
370
     0
100
AcDbMText
 10
-1.4722510283
 20
0.1575715808
 30
0.0
 40
0.0833333333
 41
0.0
 71
     1
 72
     1
  1
WALL ANCHOR SCREWS
  7
SLDTEXTSTYLE0
 73
     1
 44
1.0
  0
MTEXT
  5
241
330
23C
100
AcDbEntity
  8
0
  6
Continuous
 62
     0
370
     0
100
AcDbMText
 10
-1.4722510283
 20
0.0464604711
 30
0.0
 40
0.0833333333
 41
0.0
 71
     1
 72
     1
  1
PART OF COMPONENT "A"
  7
SLDTEXTSTYLE0
 73
     1
 44
1.0
  0
ENDBLK
  5
23E
330
23C
100
AcDbEntity
  8
0
100
AcDbBlockEnd
  0
BLOCK
  5
245
330
244
100
AcDbEntity
  8
0
100
AcDbBlockBegin
  2
SW_NOTE_10
 70
     0
 10
0.0
 20
0.0
 30
0.0
  3
SW_NOTE_10
  1

  0
MTEXT
  5
247
330
244
100
AcDbEntity
  8
0
  6
Continuous
 62
     0
370
     0
100
AcDbMText
 10
0.0198303619
 20
0.039311713
 30
0.0
 40
0.0833333333
 41
0.0
 71
     1
 72
     1
  1
INSULATED
  7
SLDTEXTSTYLE0
 73
     1
 44
1.0
  0
MTEXT
  5
248
330
244
100
AcDbEntity
  8
0
  6
Continuous
 62
     0
370
     0
100
AcDbMText
 10
0.0198303619
 20
-0.0717993968
 30
0.0
 40
0.0833333333
 41
0.0
 71
     1
 72
     1
  1
REFRIGERANT
  7
SLDTEXTSTYLE0
 73
     1
 44
1.0
  0
MTEXT
  5
249
330
244
100
AcDbEntity
  8
0
  6
Continuous
 62
     0
370
     0
100
AcDbMText
 10
0.0198303619
 20
-0.1829105065
 30
0.0
 40
0.0833333333
 41
0.0
 71
     1
 72
     1
  1
PIPING
  7
SLDTEXTSTYLE0
 73
     1
 44
1.0
  0
ENDBLK
  5
246
330
244
100
AcDbEntity
  8
0
100
AcDbBlockEnd
  0
ENDSEC
  0
SECTION
  2
ENTITIES
  0
CIRCLE
  5
44
330
1F
100
AcDbEntity
  8
0
  6
Continuous
 62
     7
370
     0
100
AcDbCircle
 10
1.2753403291
 20
7.4468193758
 30
0.0
 40
0.2028585826798124
  0
CIRCLE
  5
45
330
1F
100
AcDbEntity
  8
0
  6
Continuous
 62
     7
370
     0
100
AcDbCircle
 10
1.9088625495
 20
6.174625906
 30
0.0
 40
0.2028585826798123
  0
INSERT
  5
4C
330
1F
100
AcDbEntity
  8
0
  6
Continuous
 62
     7
370
     0
100
AcDbBlockReference
  2
SW_NOTE_0
 10
3.7314136851
 20
1.1260023543
 30
0.0
  0
MTEXT
  5
4D
330
1F
100
AcDbEntity
  8
0
  6
Continuous
 62
     7
370
     0
100
AcDbMText
 10
1.1848736016
 20
7.5732939997
 30
0.0
 40
0.2083333333
 41
0.0
 71
     1
 72
     1
  1
A
  7
SLDTEXTSTYLE0
 73
     1
 44
1.0
  0
MTEXT
  5
4E
330
1F
100
AcDbEntity
  8
0
  6
Continuous
 62
     7
370
     0
100
AcDbMText
 10
1.8172212479
 20
6.2850433474
 30
0.0
 40
0.2083333333
 41
0.0
 71
     1
 72
     1
  1
B
  7
SLDTEXTSTYLE0
 73
     1
 44
1.0
  0
LINE
  5
4F
330
1F
100
AcDbEntity
  8
0
  6
Continuous
 62
     7
370
    15
100
AcDbLine
 10
7.2469286535
 20
4.0730391804
 30
0.0
 11
7.2445465796
 21
4.0730391804
 31
0.0
  0
LINE
  5
50
330
1F
100
AcDbEntity
  8
0
  6
Continuous
 62
     7
370
    15
100
AcDbLine
 10
7.2445465796
 20
4.0540391439
 30
0.0
 11
7.2469286535
 21
4.0540391439
 31
0.0
  0
LINE
  5
51
330
1F
100
AcDbEntity
  8
0
  6
Continuous
 62
     7
370
    15
100
AcDbLine
 10
7.2469286535
 20
4.3230391883
 30
0.0
 11
7.2445465796
 21
4.3230391883
 31
0.0
  0
LINE
  5
52
330
1F
100
AcDbEntity
  8
0
  6
Continuous
 62
     7
370
    15
100
AcDbLine
 10
7.2445465796
 20
4.3040391518
 30
0.0
 11
7.2469286535
 21
4.3040391518
 31
0.0
  0
LINE
  5
53
330
1F
100
AcDbEntity
  8
0
  6
Continuous
 62
     7
370
    15
100
AcDbLine
 10
7.2445465796
 20
4.0977301111
 30
0.0
 11
7.2469286535
 21
4.0977301111
 31
0.0
  0
LINE
  5
54
330
1F
100
AcDbEntity
  8
0
  6
Continuous
 62
     7
370
    15
100
AcDbLine
 10
7.2469286535
 20
4.2977301527
 30
0.0
 11
7.2445465796
 21
4.2977301527
 31
0.0
  0
ARC
  5
55
330
1F
100
AcDbEntity
  8
0
  6
Continuous
 62
     7
370
    15
100
AcDbCircle
 10
7.1133871098
 20
4.033984592
 30
0.0
 40
0.0062499999999999
100
AcDbArc
 50
240.0
 51
285.0
  0
ARC
  5
56
330
1F
100
AcDbEntity
  8
0
  6
Continuous
 62
     7
370
    15
100
AcDbCircle
 10
7.0357413963
 20
4.3237623399
 30
0.0
 40
0.0062500000000003
100
AcDbArc
 50
105.0
 51
150.0
  0
LINE
  5
57
330
1F
100
AcDbEntity
  8
0
  6
Continuous
 62
     7
370
    15
100
AcDbLine
 10
7.1150048015
 20
4.0279475626
 30
0.0
 11
7.1185411873
 21
4.0288951357
 31
0.0
  0
LINE
  5
58
330
1F
100
AcDbEntity
  8
0
  6
Continuous
 62
     7
370
    15
100
AcDbLine
 10
7.0376602656
 20
4.3307469606
 30
0.0
 11
7.0341238798
 21
4.3297993876
 31
0.0
  0
LINE
  5
59
330
1F
100
AcDbEntity
  8
0
  6
Continuous
 62
     7
370
    15
100
AcDbLine
 10
7.0303286596
 20
4.3268873252
 30
0.0
 11
7.0256696415
 21
4.3188177011
 31
0.0
  0
LINE
  5
5A
330
1F
100
AcDbEntity
  8
0
  6
Continuous
 62
     7
370
    15
100
AcDbLine
 10
7.1021923841
 20
4.0332309629
 30
0.0
 11
7.1102620082
 21
4.0285719447
 31
0.0
  0
ARC
  5
5B
330
1F
100
AcDbEntity
  8
0
  6
Continuous
 62
     7
370
    15
100
AcDbCircle
 10
7.1053174682
 20
4.0386436017
 30
0.0
 40
0.0062500000000006
100
AcDbArc
 50
195.0
 51
240.0
  0
ARC
  5
5C
330
1F
100
AcDbEntity
  8
0
  6
Continuous
 62
     7
370
    15
100
AcDbCircle
 10
7.0310823866
 20
4.3156926983
 30
0.0
 40
0.0062500000000006
100
AcDbArc
 50
150.0
 51
195.0
  0
ARC
  5
5D
330
1F
100
AcDbEntity
  8
0
  6
Continuous
 62
     7
370
    15
100
AcDbCircle
 10
7.0810384546
 20
4.0568096771
 30
0.0
 40
0.0125000000000012
100
AcDbArc
 50
15.0
 51
60.0
  0
ARC
  5
5E
330
1F
100
AcDbEntity
  8
0
  6
Continuous
 62
     7
370
    15
100
AcDbCircle
 10
7.0191391817
 20
4.2878209088
 30
0.0
 40
0.0124999999999994
100
AcDbArc
 50
330.0
 51
15.0
  0
LINE
  5
5F
330
1F
100
AcDbEntity
  8
0
  6
Continuous
 62
     7
370
    15
100
AcDbLine
 10
7.0299644612
 20
4.2815708994
 30
0.0
 11
7.0225971863
 21
4.2688102255
 31
0.0
  0
LINE
  5
60
330
1F
100
AcDbEntity
  8
0
  6
Continuous
 62
     7
370
    15
100
AcDbLine
 10
7.0745278504
 20
4.075002379
 30
0.0
 11
7.087288407
 21
4.0676349868
 31
0.0
  0
ARC
  5
61
330
1F
100
AcDbEntity
  8
0
  6
Continuous
 62
     7
370
    15
100
AcDbCircle
 10
7.0620277796
 20
4.0533517387
 30
0.0
 40
0.025
100
AcDbArc
 50
60.0
 51
105.0
  0
ARC
  5
62
330
1F
100
AcDbEntity
  8
0
  6
Continuous
 62
     7
370
    15
100
AcDbCircle
 10
7.0009464849
 20
4.2813102337
 30
0.0
 40
0.0249999999999995
100
AcDbArc
 50
285.0
 51
330.0
  0
ARC
  5
63
330
1F
100
AcDbEntity
  8
0
  6
Continuous
 62
     7
370
    15
100
AcDbCircle
 10
6.9046390068
 20
4.0370614487
 30
0.0
 40
0.0031250000000014
100
AcDbArc
 50
225.0
 51
255.9186017381
  0
ARC
  5
64
330
1F
100
AcDbEntity
  8
0
  6
Continuous
 62
     7
370
    15
100
AcDbCircle
 10
6.9770834438
 20
4.056472877
 30
0.0
 40
0.0031249999999998
100
AcDbArc
 50
225.0
 51
345.0
  0
ARC
  5
65
330
1F
100
AcDbEntity
  8
0
  6
Continuous
 62
     7
370
    15
100
AcDbCircle
 10
6.9289431014
 20
4.2361350807
 30
0.0
 40
0.0031250000000005
100
AcDbArc
 50
45.0
 51
85.4843305045
  0
ARC
  5
66
330
1F
100
AcDbEntity
  8
0
  6
Continuous
 62
     7
370
    15
100
AcDbCircle
 10
6.9002195895
 20
4.0326420313
 30
0.0
 40
0.0031250000000002
100
AcDbArc
 50
45.0
 51
105.0
  0
ARC
  5
67
330
1F
100
AcDbEntity
  8
0
  6
Continuous
 62
     7
370
    15
100
AcDbCircle
 10
6.9726640264
 20
4.0520534597
 30
0.0
 40
0.0031250000000008
100
AcDbArc
 50
45.0
 51
105.0
  0
ARC
  5
68
330
1F
100
AcDbEntity
  8
0
  6
Continuous
 62
     7
370
    15
100
AcDbCircle
 10
6.9831204802
 20
4.054855258
 30
0.0
 40
0.0031250000000014
100
AcDbArc
 50
105.0
 51
165.0
  0
ARC
  5
69
330
1F
100
AcDbEntity
  8
0
  6
Continuous
 62
     7
370
    15
100
AcDbCircle
 10
6.9333625188
 20
4.2405544981
 30
0.0
 40
0.0031250000000014
100
AcDbArc
 50
224.9999999999
 51
285.0
  0
LINE
  5
6A
330
1F
100
AcDbEntity
  8
0
  6
Continuous
 62
     7
370
    15
100
AcDbLine
 10
6.7671152523
 20
4.0002121017
 30
0.0
 11
6.8652984167
 21
4.0265201604
 31
0.0
  0
LINE
  5
6B
330
1F
100
AcDbEntity
  8
0
  6
Continuous
 62
     7
370
    15
100
AcDbLine
 10
6.8750200751
 20
4.0291251063
 30
0.0
 11
6.899410812
 21
4.0356605562
 31
0.0
  0
LINE
  5
6C
330
1F
100
AcDbEntity
  8
0
  6
Continuous
 62
     7
370
    15
100
AcDbLine
 10
6.9135976561
 20
4.0394619362
 30
0.0
 11
6.9718553298
 21
4.0550719586
 31
0.0
  0
ARC
  5
6D
330
1F
100
AcDbEntity
  8
0
  6
Continuous
 62
     7
370
    15
100
AcDbCircle
 10
6.7663065078
 20
4.0032306053
 30
0.0
 40
0.0031250000000005
100
AcDbArc
 50
241.3162963471
 51
285.0
  0
LINE
  5
6E
330
1F
100
AcDbEntity
  8
0
  6
Continuous
 62
     7
370
    15
100
AcDbLine
 10
6.982311721
 20
4.0578737876
 30
0.0
 11
7.0555573815
 21
4.0774999075
 31
0.0
  0
LINE
  5
6F
330
1F
100
AcDbEntity
  8
0
  6
Continuous
 62
     7
370
    15
100
AcDbLine
 10
7.0074170096
 20
4.2571620934
 30
0.0
 11
6.9341713491
 21
4.2375359734
 31
0.0
  0
SPLINE
  5
70
330
1F
100
AcDbEntity
  8
0
  6
Continuous
 62
     7
370
    15
100
AcDbSpline
210
0.0
220
0.0
230
1.0
 70
     8
 71
     3
 72
    11
 73
     7
 74
     0
 42
0.00000001
 43
0.00000001
 12
1.0
 22
0.0
 32
0.0
 13
1.0
 23
0.0
 33
0.0
 40
0.0
 40
0.0
 40
0.0
 40
0.0
 40
0.088743979586453
 40
0.4225947606516395
 40
0.7522577061081679
 40
0.9999999999999999
 40
0.9999999999999999
 40
0.9999999999999999
 40
0.9999999999999999
 10
7.244545875647519
 20
4.003772657868066
 30
0.0
 10
7.244545686015173
 20
4.00402489801079
 30
0.0
 10
7.244544782994641
 20
4.005226054001737
 30
0.0
 10
7.244547194716419
 20
4.008231436816345
 30
0.0
 10
7.244545433655062
 20
4.012169295076462
 30
0.0
 10
7.244543279816952
 20
4.014803685032645
 30
0.0
 10
7.244542355688181
 20
4.015934000045871
 30
0.0
  0
SPLINE
  5
71
330
1F
100
AcDbEntity
  8
0
  6
Continuous
 62
     7
370
    15
100
AcDbSpline
210
0.0
220
0.0
230
1.0
 70
     8
 71
     3
 72
    11
 73
     7
 74
     0
 42
0.00000001
 43
0.00000001
 12
1.0
 22
0.0
 32
0.0
 13
1.0
 23
0.0
 33
0.0
 40
0.0
 40
0.0
 40
0.0
 40
0.0
 40
0.0494270488465771
 40
0.3851313628427942
 40
0.733829771649456
 40
1.0
 40
1.0
 40
1.0
 40
1.0
 10
7.24454352900796
 20
3.998977299931117
 30
0.0
 10
7.244543515867967
 20
3.998986389081585
 30
0.0
 10
7.244543413482252
 20
3.999057210969362
 30
0.0
 10
7.244547778673745
 20
3.999553267552411
 30
0.0
 10
7.244546957636594
 20
4.00119760253879
 30
0.0
 10
7.244546202526718
 20
4.002994709139762
 30
0.0
 10
7.244545875647519
 20
4.003772657868066
 30
0.0
  0
SPLINE
  5
72
330
1F
100
AcDbEntity
  8
0
  6
Continuous
 62
     7
370
    15
100
AcDbSpline
210
0.0
220
0.0
230
1.0
 70
     8
 71
     3
 72
    11
 73
     7
 74
     0
 42
0.00000001
 43
0.00000001
 12
1.0
 22
0.0
 32
0.0
 13
1.0
 23
0.0
 33
0.0
 40
0.0
 40
0.0
 40
0.0
 40
0.0
 40
0.1068421264984774
 40
0.4394678887239834
 40
0.7743877034986603
 40
0.9999999999999999
 40
0.9999999999999999
 40
0.9999999999999999
 40
0.9999999999999999
 10
7.244546110311474
 20
4.372764832572311
 30
0.0
 10
7.244545915104331
 20
4.373139139971919
 30
0.0
 10
7.24454511216944
 20
4.374678758173376
 30
0.0
 10
7.244547164333144
 20
4.376522581038935
 30
0.0
 10
7.24454514859518
 20
4.377850566907456
 30
0.0
 10
7.244543324531611
 20
4.378001879304026
 30
0.0
 10
7.244542590352137
 20
4.378062782036612
 30
0.0
  0
SPLINE
  5
73
330
1F
100
AcDbEntity
  8
0
  6
Continuous
 62
     7
370
    15
100
AcDbSpline
210
0.0
220
0.0
230
1.0
 70
     8
 71
     3
 72
    11
 73
     7
 74
     0
 42
0.00000001
 43
0.00000001
 12
1.0
 22
0.0
 32
0.0
 13
1.0
 23
0.0
 33
0.0
 40
0.0
 40
0.0
 40
0.0
 40
0.0
 40
0.0743407504907904
 40
0.4080886306086246
 40
0.7619184232232328
 40
1.0
 40
1.0
 40
1.0
 40
1.0
 10
7.24454352900796
 20
4.361130017645352
 30
0.0
 10
7.244543501743178
 20
4.361449860404259
 30
0.0
 10
7.244543352074952
 20
4.363205616064927
 30
0.0
 10
7.244547674487486
 20
4.366457990912767
 30
0.0
 10
7.244547320879607
 20
4.370171462203804
 30
0.0
 10
7.244546457560172
 20
4.37202093021826
 30
0.0
 10
7.244546110311474
 20
4.372764832572311
 30
0.0
  0
LINE
  5
74
330
1F
100
AcDbEntity
  8
0
  6
Continuous
 62
     7
370
    15
100
AcDbLine
 10
7.2445465796
 20
4.0160591346
 30
0.0
 11
7.2445465796
 21
4.3614288622
 31
0.0
  0
LINE
  5
75
330
1F
100
AcDbEntity
  8
0
  6
Continuous
 62
     7
370
    15
100
AcDbLine
 10
7.2445301532
 20
4.0159324747
 30
0.0
 11
7.2445371931
 21
4.0160577266
 31
0.0
  0
SPLINE
  5
76
330
1F
100
AcDbEntity
  8
0
  6
Continuous
 62
     7
370
    15
100
AcDbSpline
210
0.0
220
0.0
230
1.0
 70
     8
 71
     3
 72
    10
 73
     6
 74
     0
 42
0.00000001
 43
0.00000001
 12
1.0
 22
0.0
 32
0.0
 13
1.0
 23
0.0
 33
0.0
 40
0.0
 40
0.0
 40
0.0
 40
0.0
 40
0.0004545584477319
 40
0.6335689179874685
 40
1.0
 40
1.0
 40
1.0
 40
1.0
 10
7.244546110311474
 20
4.371045097772167
 30
0.0
 10
7.244546110311385
 20
4.371046036467717
 30
0.0
 10
7.244546110186877
 20
4.372354401381475
 30
0.0
 10
7.244546930711333
 20
4.374054025307501
 30
0.0
 10
7.244546330388468
 20
4.375208581706492
 30
0.0
 10
7.244546110311474
 20
4.375631839452402
 30
0.0
  0
SPLINE
  5
77
330
1F
100
AcDbEntity
  8
0
  6
Continuous
 62
     7
370
    15
100
AcDbSpline
210
0.0
220
0.0
230
1.0
 70
     8
 71
     3
 72
     9
 73
     5
 74
     0
 42
0.00000001
 43
0.00000001
 12
1.0
 22
0.0
 32
0.0
 13
1.0
 23
0.0
 33
0.0
 40
0.0
 40
0.0
 40
0.0
 40
0.0
 40
0.2577990730406963
 40
1.0
 40
1.0
 40
1.0
 40
1.0
 10
7.244544936991695
 20
4.377666375949263
 30
0.0
 10
7.24454485569201
 20
4.3777528745909
 30
0.0
 10
7.244544540331356
 20
4.378088401947989
 30
0.0
 10
7.244544363927174
 20
4.378075009728155
 30
0.0
 10
7.244544232999827
 20
4.378065070010182
 30
0.0
  0
LINE
  5
78
330
1F
100
AcDbEntity
  8
0
  6
Continuous
 62
     7
370
    15
100
AcDbLine
 10
7.2445465796
 20
4.0156562753
 30
0.0
 11
7.2445465796
 21
4.0160591346
 31
0.0
  0
LINE
  5
79
330
1F
100
AcDbEntity
  8
0
  6
Continuous
 62
     7
370
    15
100
AcDbLine
 10
6.8743228885
 20
3.9942781542
 30
0.0
 11
6.9224724123
 21
4.0077550812
 31
0.0
  0
LINE
  5
7A
330
1F
100
AcDbEntity
  8
0
  6
Continuous
 62
     7
370
    15
100
AcDbLine
 10
6.8507750645
 20
4.2639103247
 30
0.0
 11
6.827620772
 21
4.2574294929
 31
0.0
  0
LINE
  5
7B
330
1F
100
AcDbEntity
  8
0
  6
Continuous
 62
     7
370
    15
100
AcDbLine
 10
6.8242582722
 20
4.2564883145
 30
0.0
 11
6.8026255407
 21
4.2504333391
 31
0.0
  0
LINE
  5
7C
330
1F
100
AcDbEntity
  8
0
  6
Continuous
 62
     7
370
    15
100
AcDbLine
 10
4.797398572
 20
3.6546576055
 30
0.0
 11
4.6040706133
 21
3.6546576055
 31
0.0
  0
LINE
  5
7D
330
1F
100
AcDbEntity
  8
0
  6
Continuous
 62
     7
370
    15
100
AcDbLine
 10
4.6040706133
 20
3.614657609
 30
0.0
 11
4.797398572
 21
3.614657609
 31
0.0
  0
LINE
  5
7E
330
1F
100
AcDbEntity
  8
0
  6
Continuous
 62
     7
370
    15
100
AcDbLine
 10
4.3961989453
 20
3.614657609
 30
0.0
 11
4.6040706133
 21
3.614657609
 31
0.0
  0
LINE
  5
7F
330
1F
100
AcDbEntity
  8
0
  6
Continuous
 62
     7
370
    15
100
AcDbLine
 10
4.6040706133
 20
3.6546576055
 30
0.0
 11
4.3961989453
 21
3.6546576055
 31
0.0
  0
LINE
  5
80
330
1F
100
AcDbEntity
  8
0
  6
Continuous
 62
     7
370
    15
100
AcDbLine
 10
4.797398572
 20
3.7396576129
 30
0.0
 11
4.6040706133
 21
3.7396576129
 31
0.0
  0
LINE
  5
81
330
1F
100
AcDbEntity
  8
0
  6
Continuous
 62
     7
370
    15
100
AcDbLine
 10
4.6040706133
 20
3.6996576164
 30
0.0
 11
4.797398572
 21
3.6996576164
 31
0.0
  0
LINE
  5
82
330
1F
100
AcDbEntity
  8
0
  6
Continuous
 62
     7
370
    15
100
AcDbLine
 10
4.5640705581
 20
3.6996576164
 30
0.0
 11
4.6040706133
 21
3.6996576164
 31
0.0
  0
LINE
  5
83
330
1F
100
AcDbEntity
  8
0
  6
Continuous
 62
     7
370
    15
100
AcDbLine
 10
4.6040706133
 20
3.7396576129
 30
0.0
 11
4.5640705581
 21
3.7396576129
 31
0.0
  0
LINE
  5
84
330
1F
100
AcDbEntity
  8
0
  6
Continuous
 62
     7
370
    15
100
AcDbLine
 10
4.4406515145
 20
3.4496576084
 30
0.0
 11
4.4406515145
 21
3.614657609
 31
0.0
  0
LINE
  5
85
330
1F
100
AcDbEntity
  8
0
  6
Continuous
 62
     7
370
    15
100
AcDbLine
 10
4.4406515145
 20
3.6546576055
 30
0.0
 11
4.4406515145
 21
3.6996576164
 31
0.0
  0
LINE
  5
86
330
1F
100
AcDbEntity
  8
0
  6
Continuous
 62
     7
370
    15
100
AcDbLine
 10
4.3517463175
 20
3.6996576164
 30
0.0
 11
4.3517463175
 21
3.4496576084
 31
0.0
  0
LINE
  5
87
330
1F
100
AcDbEntity
  8
0
  6
Continuous
 62
     7
370
    15
100
AcDbLine
 10
4.6085231859
 20
3.4496576084
 30
0.0
 11
4.6085231859
 21
3.614657609
 31
0.0
  0
LINE
  5
88
330
1F
100
AcDbEntity
  8
0
  6
Continuous
 62
     7
370
    15
100
AcDbLine
 10
4.6085231859
 20
3.6546576055
 30
0.0
 11
4.6085231859
 21
3.6996576164
 31
0.0
  0
LINE
  5
89
330
1F
100
AcDbEntity
  8
0
  6
Continuous
 62
     7
370
    15
100
AcDbLine
 10
4.6085231859
 20
3.7396576129
 30
0.0
 11
4.6085231859
 21
3.7996576078
 31
0.0
  0
LINE
  5
8A
330
1F
100
AcDbEntity
  8
0
  6
Continuous
 62
     7
370
    15
100
AcDbLine
 10
4.5196179889
 20
3.7996576078
 30
0.0
 11
4.5196179889
 21
3.6546576055
 31
0.0
  0
LINE
  5
8B
330
1F
100
AcDbEntity
  8
0
  6
Continuous
 62
     7
370
    15
100
AcDbLine
 10
4.5196179889
 20
3.614657609
 30
0.0
 11
4.5196179889
 21
3.4496576084
 31
0.0
  0
LINE
  5
8C
330
1F
100
AcDbEntity
  8
0
  6
Continuous
 62
     7
370
    15
100
AcDbLine
 10
4.4314098026
 20
5.3496576221
 30
0.0
 11
4.3263786746
 21
5.4996575213
 31
0.0
  0
LINE
  5
8D
330
1F
100
AcDbEntity
  8
0
  6
Continuous
 62
     7
370
    15
100
AcDbLine
 10
3.1263786597
 20
5.4996575213
 30
0.0
 11
3.0213475317
 21
5.3496576221
 31
0.0
  0
LINE
  5
8E
330
1F
100
AcDbEntity
  8
0
  6
Continuous
 62
     7
370
    15
100
AcDbLine
 10
4.797398572
 20
3.6546576055
 30
0.0
 11
4.6040706133
 21
3.6546576055
 31
0.0
  0
LINE
  5
8F
330
1F
100
AcDbEntity
  8
0
  6
Continuous
 62
     7
370
    15
100
AcDbLine
 10
4.6040706133
 20
3.614657609
 30
0.0
 11
4.797398572
 21
3.614657609
 31
0.0
  0
LINE
  5
90
330
1F
100
AcDbEntity
  8
0
  6
Continuous
 62
     7
370
    15
100
AcDbLine
 10
4.797398572
 20
3.7396576129
 30
0.0
 11
4.6040706133
 21
3.7396576129
 31
0.0
  0
LINE
  5
91
330
1F
100
AcDbEntity
  8
0
  6
Continuous
 62
     7
370
    15
100
AcDbLine
 10
4.6040706133
 20
3.6996576164
 30
0.0
 11
4.797398572
 21
3.6996576164
 31
0.0
  0
LINE
  5
92
330
1F
100
AcDbEntity
  8
0
  6
Continuous
 62
     7
370
    15
100
AcDbLine
 10
4.4406515145
 20
3.4496576084
 30
0.0
 11
4.4406515145
 21
3.614657609
 31
0.0
  0
LINE
  5
93
330
1F
100
AcDbEntity
  8
0
  6
Continuous
 62
     7
370
    15
100
AcDbLine
 10
4.4406515145
 20
3.6546576055
 30
0.0
 11
4.4406515145
 21
3.6996576164
 31
0.0
  0
LINE
  5
94
330
1F
100
AcDbEntity
  8
0
  6
Continuous
 62
     7
370
    15
100
AcDbLine
 10
4.3517463175
 20
3.6996576164
 30
0.0
 11
4.3517463175
 21
3.4496576084
 31
0.0
  0
LINE
  5
95
330
1F
100
AcDbEntity
  8
0
  6
Continuous
 62
     7
370
    15
100
AcDbLine
 10
4.6085231859
 20
3.4496576084
 30
0.0
 11
4.6085231859
 21
3.614657609
 31
0.0
  0
LINE
  5
96
330
1F
100
AcDbEntity
  8
0
  6
Continuous
 62
     7
370
    15
100
AcDbLine
 10
4.6085231859
 20
3.6546576055
 30
0.0
 11
4.6085231859
 21
3.6996576164
 31
0.0
  0
LINE
  5
97
330
1F
100
AcDbEntity
  8
0
  6
Continuous
 62
     7
370
    15
100
AcDbLine
 10
4.6085231859
 20
3.7396576129
 30
0.0
 11
4.6085231859
 21
3.7996576078
 31
0.0
  0
LINE
  5
98
330
1F
100
AcDbEntity
  8
0
  6
Continuous
 62
     7
370
    15
100
AcDbLine
 10
4.5196179889
 20
3.7996576078
 30
0.0
 11
4.5196179889
 21
3.6546576055
 31
0.0
  0
LINE
  5
99
330
1F
100
AcDbEntity
  8
0
  6
Continuous
 62
     7
370
    15
100
AcDbLine
 10
4.5196179889
 20
3.614657609
 30
0.0
 11
4.5196179889
 21
3.4496576084
 31
0.0
  0
LINE
  5
9A
330
1F
100
AcDbEntity
  8
0
  6
Continuous
 62
     7
370
    15
100
AcDbLine
 10
4.4314098026
 20
5.3496576221
 30
0.0
 11
4.3263786746
 21
5.4996575213
 31
0.0
  0
LINE
  5
9B
330
1F
100
AcDbEntity
  8
0
  6
Continuous
 62
     7
370
    15
100
AcDbLine
 10
3.1263786597
 20
5.4996575213
 30
0.0
 11
3.0213475317
 21
5.3496576221
 31
0.0
  0
LINE
  5
9C
330
1F
100
AcDbEntity
  8
0
  6
Continuous
 62
     7
370
    15
100
AcDbLine
 10
6.9229379856
 20
4.2615841596
 30
0.0
 11
6.8566214823
 21
4.2430222994
 31
0.0
  0
LINE
  5
9D
330
1F
100
AcDbEntity
  8
0
  6
Continuous
 62
     7
370
    15
100
AcDbLine
 10
6.8084719585
 20
4.2295453724
 30
0.0
 11
5.4422961887
 21
3.8471551471
 31
0.0
  0
ARC
  5
9E
330
1F
100
AcDbEntity
  8
0
  6
Continuous
 62
     7
370
    15
100
AcDbCircle
 10
4.9294981364
 20
5.67924261
 30
0.0
 40
1.902499999999999
100
AcDbArc
 50
270.0
 51
285.6368383991
  0
LINE
  5
9F
330
1F
100
AcDbEntity
  8
0
  6
Continuous
 62
     7
370
    15
100
AcDbLine
 10
4.9294981873
 20
3.7767426139
 30
0.0
 11
4.7596876049
 21
3.7767426139
 31
0.0
  0
LINE
  5
A0
330
1F
100
AcDbEntity
  8
0
  6
Continuous
 62
     7
370
    15
100
AcDbLine
 10
5.4948562215
 20
3.6450322621
 30
0.0
 11
6.7648066283
 21
4.0004891225
 31
0.0
  0
ARC
  5
A1
330
1F
100
AcDbEntity
  8
0
  6
Continuous
 62
     7
370
    15
100
AcDbCircle
 10
4.9294981364
 20
5.6649026699
 30
0.0
 40
2.097499999999999
100
AcDbArc
 50
270.0
 51
285.6368383991
  0
LINE
  5
A2
330
1F
100
AcDbEntity
  8
0
  6
Continuous
 62
     7
370
    15
100
AcDbLine
 10
4.7596876049
 20
3.5674026682
 30
0.0
 11
4.9294981873
 21
3.5674026682
 31
0.0
  0
SPLINE
  5
A3
330
1F
100
AcDbEntity
  8
0
  6
Continuous
 62
     7
370
    15
100
AcDbSpline
210
0.0
220
0.0
230
1.0
 70
     8
 71
     3
 72
    16
 73
    12
 74
     0
 42
0.00000001
 43
0.00000001
 12
1.0
 22
0.0
 32
0.0
 13
1.0
 23
0.0
 33
0.0
 40
0.0
 40
0.0
 40
0.0
 40
0.0
 40
0.0377250194600115
 40
0.1324322047810547
 40
0.2111327026356136
 40
0.2797597125287944
 40
0.3403216695719375
 40
0.4045806586907429
 40
0.499968889921982
 40
0.6961980500154348
 40
1.0
 40
1.0
 40
1.0
 40
1.0
 10
6.845382486817048
 20
4.278407511929464
 30
0.0
 10
6.845301141867012
 20
4.278377592114789
 30
0.0
 10
6.845015583602627
 20
4.27827255977602
 30
0.0
 10
6.844518525454212
 20
4.278328722654508
 30
0.0
 10
6.844012713339406
 20
4.278501658873324
 30
0.0
 10
6.843660509595102
 20
4.278738828206782
 30
0.0
 10
6.843442703667651
 20
4.27895038892101
 30
0.0
 10
6.843304642270109
 20
4.279123609787534
 30
0.0
 10
6.843202231530002
 20
4.279282502164243
 30
0.0
 10
6.843148687113597
 20
4.279389014390003
 30
0.0
 10
6.84315235732474
 20
4.279381958380761
 30
0.0
 10
6.843154587220601
 20
4.279377671388765
 30
0.0
  0
SPLINE
  5
A4
330
1F
100
AcDbEntity
  8
0
  6
Continuous
 62
     7
370
    15
100
AcDbSpline
210
0.0
220
0.0
230
1.0
 70
     8
 71
     3
 72
    15
 73
    11
 74
     0
 42
0.00000001
 43
0.00000001
 12
1.0
 22
0.0
 32
0.0
 13
1.0
 23
0.0
 33
0.0
 40
0.0
 40
0.0
 40
0.0
 40
0.0
 40
0.2034217039550483
 40
0.4816005685467051
 40
0.6175161380414115
 40
0.6964041495325657
 40
0.7824077249874701
 40
0.8864441435014951
 40
0.9998511155884031
 40
1.0
 40
1.0
 40
1.0
 40
1.0
 10
6.799587346513083
 20
4.267185764230717
 30
0.0
 10
6.799587268259073
 20
4.267185824848378
 30
0.0
 10
6.799587082992824
 20
4.267185968360595
 30
0.0
 10
6.799596965164182
 20
4.2670920877535
 30
0.0
 10
6.799590188508816
 20
4.266802860884835
 30
0.0
 10
6.79950087879198
 20
4.266403151887097
 30
0.0
 10
6.799286384079122
 20
4.265935850960334
 30
0.0
 10
6.798858172590511
 20
4.265486079689921
 30
0.0
 10
6.79846080473221
 20
4.265205744385859
 30
0.0
 10
6.798222149857429
 20
4.265175965159098
 30
0.0
 10
6.798221836954233
 20
4.265175926115205
 30
0.0
  0
ARC
  5
A5
330
1F
100
AcDbEntity
  8
0
  6
Continuous
 62
     7
370
    15
100
AcDbCircle
 10
6.8470227931
 20
4.2721940489
 30
0.0
 40
0.0063976377952762
100
AcDbArc
 50
15.6368383991
 51
104.355256218
  0
ARC
  5
A6
330
1F
100
AcDbEntity
  8
0
  6
Continuous
 62
     7
370
    15
100
AcDbCircle
 10
6.800010709
 20
4.2590354505
 30
0.0
 40
0.0063976377952777
100
AcDbArc
 50
106.2129538335
 51
195.6368383991
  0
ARC
  5
A7
330
1F
100
AcDbEntity
  8
0
  6
Continuous
 62
     7
370
    15
100
AcDbCircle
 10
6.8021330636
 20
4.2514528563
 30
0.0
 40
0.0041141732283467
100
AcDbArc
 50
195.6368383991
 51
285.6368383991
  0
ARC
  5
A8
330
1F
100
AcDbEntity
  8
0
  6
Continuous
 62
     7
370
    15
100
AcDbCircle
 10
6.8491451477
 20
4.2646114547
 30
0.0
 40
0.0041141732283478
100
AcDbArc
 50
305.2433521698
 51
15.6368383991
  0
LINE
  5
A9
330
1F
100
AcDbEntity
  8
0
  6
Continuous
 62
     7
370
    15
100
AcDbLine
 10
6.8034339581
 20
4.2475446845
 30
0.0
 11
6.803242003
 21
4.2474909464
 31
0.0
  0
LINE
  5
AA
330
1F
100
AcDbEntity
  8
0
  6
Continuous
 62
     7
370
    15
100
AcDbLine
 10
7.2469286535
 20
4.0635391621
 30
0.0
 11
7.2469286535
 21
4.0540391439
 31
0.0
  0
LINE
  5
AB
330
1F
100
AcDbEntity
  8
0
  6
Continuous
 62
     7
370
    15
100
AcDbLine
 10
7.2469286535
 20
4.0730391804
 30
0.0
 11
7.2469286535
 21
4.0635391621
 31
0.0
  0
LINE
  5
AC
330
1F
100
AcDbEntity
  8
0
  6
Continuous
 62
     7
370
    15
100
AcDbLine
 10
7.2469286535
 20
4.3135391701
 30
0.0
 11
7.2469286535
 21
4.3040391518
 31
0.0
  0
LINE
  5
AD
330
1F
100
AcDbEntity
  8
0
  6
Continuous
 62
     7
370
    15
100
AcDbLine
 10
7.2469286535
 20
4.3230391883
 30
0.0
 11
7.2469286535
 21
4.3135391701
 31
0.0
  0
LINE
  5
AE
330
1F
100
AcDbEntity
  8
0
  6
Continuous
 62
     7
370
    15
100
AcDbLine
 10
7.6469286193
 20
4.2902287674
 30
0.0
 11
7.2469286535
 21
4.2902287674
 31
0.0
  0
LINE
  5
AF
330
1F
100
AcDbEntity
  8
0
  6
Continuous
 62
     7
370
    15
100
AcDbLine
 10
7.2469286535
 20
4.1052314965
 30
0.0
 11
7.6469286193
 21
4.1052314965
 31
0.0
  0
LINE
  5
B0
330
1F
100
AcDbEntity
  8
0
  6
Continuous
 62
     7
370
    15
100
AcDbLine
 10
7.2469286535
 20
4.2977301527
 30
0.0
 11
7.2469286535
 21
4.0977301111
 31
0.0
  0
LINE
  5
B1
330
1F
100
AcDbEntity
  8
0
  6
Continuous
 62
     7
370
    15
100
AcDbLine
 10
7.8544302222
 20
2.5977301219
 30
0.0
 11
7.8544302222
 21
3.8977301282
 31
0.0
  0
LINE
  5
B2
330
1F
100
AcDbEntity
  8
0
  6
Continuous
 62
     7
370
    15
100
AcDbLine
 10
8.0394270824
 20
3.8977301282
 30
0.0
 11
8.0394270824
 21
2.5977301219
 31
0.0
  0
LINE
  5
B3
330
1F
100
AcDbEntity
  8
0
  6
Continuous
 62
     7
370
    15
100
AcDbLine
 10
8.0394270824
 20
2.5977301219
 30
0.0
 11
7.8544302222
 21
2.5977301219
 31
0.0
  0
ARC
  5
B4
330
1F
100
AcDbEntity
  8
0
  6
Continuous
 62
     7
370
    15
100
AcDbCircle
 10
7.6469286671
 20
3.8977301251
 30
0.0
 40
0.2075013513612243
100
AcDbArc
 50
0.0
 51
90.0
  0
ARC
  5
B5
330
1F
100
AcDbEntity
  8
0
  6
Continuous
 62
     7
370
    15
100
AcDbCircle
 10
7.6469286671
 20
3.8977301251
 30
0.0
 40
0.3924986486387771
100
AcDbArc
 50
0.0
 51
90.0
  0
LINE
  5
B6
330
1F
100
AcDbEntity
  8
0
  6
Continuous
 62
     7
370
    15
100
AcDbLine
 10
7.2469286535
 20
2.8296576027
 30
0.0
 11
2.1449286375
 21
2.8296576027
 31
0.0
  0
LINE
  5
B7
330
1F
100
AcDbEntity
  8
0
  6
Continuous
 62
     7
370
    15
100
AcDbLine
 10
2.1449286375
 20
3.1496576047
 30
0.0
 11
2.1449286375
 21
2.8296576027
 31
0.0
  0
LINE
  5
B8
330
1F
100
AcDbEntity
  8
0
  6
Continuous
 62
     7
370
    15
100
AcDbLine
 10
6.9469286204
 20
3.1496576047
 30
0.0
 11
2.1449286375
 21
3.1496576047
 31
0.0
  0
LINE
  5
B9
330
1F
100
AcDbEntity
  8
0
  6
Continuous
 62
     7
370
    15
100
AcDbLine
 10
7.2469286535
 20
3.4496576084
 30
0.0
 11
6.9469286204
 21
3.1496576047
 31
0.0
  0
LINE
  5
BA
330
1F
100
AcDbEntity
  8
0
  6
Continuous
 62
     7
370
    15
100
AcDbLine
 10
7.2469286535
 20
3.4496576084
 30
0.0
 11
7.2469286535
 21
2.8296576027
 31
0.0
  0
LINE
  5
BB
330
1F
100
AcDbEntity
  8
0
  6
Continuous
 62
     7
370
    15
100
AcDbLine
 10
9.3869285293
 20
3.1496576047
 30
0.0
 11
10.7869285271
 21
3.1496576047
 31
0.0
  0
LINE
  5
BC
330
1F
100
AcDbEntity
  8
0
  6
Continuous
 62
     7
370
    15
100
AcDbLine
 10
10.7869285271
 20
3.1496576047
 30
0.0
 11
10.7869285271
 21
2.8296576027
 31
0.0
  0
LINE
  5
BD
330
1F
100
AcDbEntity
  8
0
  6
Continuous
 62
     7
370
    15
100
AcDbLine
 10
9.3869285293
 20
2.8296576027
 30
0.0
 11
10.7869285271
 21
2.8296576027
 31
0.0
  0
LINE
  5
BE
330
1F
100
AcDbEntity
  8
0
  6
Continuous
 62
     7
370
    15
100
AcDbLine
 10
9.3869285293
 20
2.8296576027
 30
0.0
 11
9.3869285293
 21
3.1496576047
 31
0.0
  0
LINE
  5
BF
330
1F
100
AcDbEntity
  8
0
  6
Continuous
 62
     7
370
    15
100
AcDbLine
 10
7.5669286261
 20
4.3447644947
 30
0.0
 11
7.2469286535
 21
4.3447644947
 31
0.0
  0
LINE
  5
C0
330
1F
100
AcDbEntity
  8
0
  6
Continuous
 62
     7
370
    15
100
AcDbLine
 10
7.5669286261
 20
4.0545507699
 30
0.0
 11
7.5669286261
 21
4.1052314965
 31
0.0
  0
LINE
  5
C1
330
1F
100
AcDbEntity
  8
0
  6
Continuous
 62
     7
370
    15
100
AcDbLine
 10
7.5669286261
 20
4.2902287674
 30
0.0
 11
7.5669286261
 21
4.3447644947
 31
0.0
  0
LINE
  5
C2
330
1F
100
AcDbEntity
  8
0
  6
Continuous
 62
     7
370
    15
100
AcDbLine
 10
7.2469286535
 20
4.0545507699
 30
0.0
 11
7.5669286261
 21
4.0545507699
 31
0.0
  0
LINE
  5
C3
330
1F
100
AcDbEntity
  8
0
  6
Continuous
 62
     7
370
    15
100
AcDbLine
 10
7.2469286535
 20
4.3447644947
 30
0.0
 11
7.2469286535
 21
4.3230391883
 31
0.0
  0
LINE
  5
C4
330
1F
100
AcDbEntity
  8
0
  6
Continuous
 62
     7
370
    15
100
AcDbLine
 10
7.2469286535
 20
4.3040391518
 30
0.0
 11
7.2469286535
 21
4.2977301527
 31
0.0
  0
LINE
  5
C5
330
1F
100
AcDbEntity
  8
0
  6
Continuous
 62
     7
370
    15
100
AcDbLine
 10
7.2469286535
 20
4.0977301111
 30
0.0
 11
7.2469286535
 21
4.0730391804
 31
0.0
  0
LINE
  5
C6
330
1F
100
AcDbEntity
  8
0
  6
Continuous
 62
     7
370
    15
100
AcDbLine
 10
7.2469286535
 20
4.0540391439
 30
0.0
 11
7.2469286535
 21
3.4496576084
 31
0.0
  0
LINE
  5
C7
330
1F
100
AcDbEntity
  8
0
  6
Continuous
 62
     7
370
    15
100
AcDbLine
 10
7.5669286261
 20
4.0545507699
 30
0.0
 11
7.5669286261
 21
2.8296576027
 31
0.0
  0
LINE
  5
C8
330
1F
100
AcDbEntity
  8
0
  6
Continuous
 62
     7
370
    15
100
AcDbLine
 10
7.2469286535
 20
2.8296576027
 30
0.0
 11
7.5669286261
 21
2.8296576027
 31
0.0
  0
LINE
  5
C9
330
1F
100
AcDbEntity
  8
0
  6
Continuous
 62
     7
370
    15
100
AcDbLine
 10
9.0669285567
 20
2.8296576027
 30
0.0
 11
9.0669285567
 21
5.3296575651
 31
0.0
  0
LINE
  5
CA
330
1F
100
AcDbEntity
  8
0
  6
Continuous
 62
     7
370
    15
100
AcDbLine
 10
9.0669285567
 20
5.3296575651
 30
0.0
 11
7.5669286261
 21
5.3296575651
 31
0.0
  0
LINE
  5
CB
330
1F
100
AcDbEntity
  8
0
  6
Continuous
 62
     7
370
    15
100
AcDbLine
 10
7.5669286261
 20
5.3296575651
 30
0.0
 11
7.5669286261
 21
4.3447644947
 31
0.0
  0
LINE
  5
CC
330
1F
100
AcDbEntity
  8
0
  6
Continuous
 62
     7
370
    15
100
AcDbLine
 10
7.2469286535
 20
5.6496575378
 30
0.0
 11
7.2469286535
 21
4.3447644947
 31
0.0
  0
LINE
  5
CD
330
1F
100
AcDbEntity
  8
0
  6
Continuous
 62
     7
370
    15
100
AcDbLine
 10
9.3869285293
 20
5.6496575378
 30
0.0
 11
7.2469286535
 21
5.6496575378
 31
0.0
  0
LINE
  5
CE
330
1F
100
AcDbEntity
  8
0
  6
Continuous
 62
     7
370
    15
100
AcDbLine
 10
9.3869285293
 20
3.1496576047
 30
0.0
 11
9.3869285293
 21
5.6496575378
 31
0.0
  0
LINE
  5
CF
330
1F
100
AcDbEntity
  8
0
  6
Continuous
 62
     7
370
    15
100
AcDbLine
 10
9.3869285293
 20
2.8296576027
 30
0.0
 11
9.0669285567
 21
2.8296576027
 31
0.0
  0
LWPOLYLINE
  5
D0
330
1F
100
AcDbEntity
  8
0
  6
Continuous
 62
     7
370
    15
100
AcDbPolyline
 90
       33
 70
   128
 43
0.0
 10
7.0992804391
 20
4.0370260071
 10
7.0991016252
 20
4.0376930394
 10
7.0985672953
 20
4.039687683
 10
7.0976821429
 20
4.0429908128
 10
7.0964550851
 20
4.0475705146
 10
7.0948976204
 20
4.0533827888
 10
7.093025002
 20
4.0603715507
 10
7.0908550644
 20
4.0684696278
 10
7.0884089274
 20
4.077598877
 10
7.0857100572
 20
4.0876714753
 10
7.082784267
 20
4.0985903892
 10
7.0796599511
 20
4.1102504892
 10
7.0763671465
 20
4.1225394885
 10
7.0729375327
 20
4.1353389993
 10
7.0694041976
 20
4.1485257057
 10
7.0658009325
 20
4.1619727717
 10
7.0621629372
 20
4.1755505455
 10
7.0585247072
 20
4.1891283193
 10
7.0549216769
 20
4.2025753266
 10
7.0513883417
 20
4.2157620916
 10
7.047958728
 20
4.2285616024
 10
7.0446656887
 20
4.2408505431
 10
7.0415416074
 20
4.2525106431
 10
7.0386158172
 20
4.263429557
 10
7.0359167124
 20
4.2735021553
 10
7.0334705753
 20
4.2826314631
 10
7.0313008724
 20
4.2907294816
 10
7.029428254
 20
4.2977183022
 10
7.0278707894
 20
4.3035305177
 10
7.0266437315
 20
4.3081102781
 10
7.0257585791
 20
4.3114133493
 10
7.0252240146
 20
4.3134080516
 10
7.02504567
 20
4.3140741452
  0
SPLINE
  5
D1
330
1F
100
AcDbEntity
  8
0
  6
Continuous
 62
     7
370
    15
100
AcDbSpline
210
0.0
220
0.0
230
1.0
 70
     8
 71
     3
 72
     9
 73
     5
 74
     0
 42
0.00000001
 43
0.00000001
 12
1.0
 22
0.0
 32
0.0
 13
1.0
 23
0.0
 33
0.0
 40
0.0
 40
0.0
 40
0.0
 40
0.0
 40
0.6659556823419654
 40
1.0
 40
1.0
 40
1.0
 40
1.0
 10
7.241548512939975
 20
3.995969142681606
 30
0.0
 10
7.241547155801115
 20
3.99597146574899
 30
0.0
 10
7.241545117919473
 20
3.995974954070276
 30
0.0
 10
7.241543265223606
 20
3.995978469563195
 30
0.0
 10
7.24154264634108
 20
3.995979643893629
 30
0.0
  0
LINE
  5
D2
330
1F
100
AcDbEntity
  8
0
  6
Continuous
 62
     7
370
    15
100
AcDbLine
 10
7.2221896752
 20
3.9959691427
 30
0.0
 11
7.2415475743
 21
3.9959691427
 31
0.0
  0
SPLINE
  5
D3
330
1F
100
AcDbEntity
  8
0
  6
Continuous
 62
     7
370
    15
100
AcDbSpline
210
0.0
220
0.0
230
1.0
 70
    24
 71
     3
 72
    11
 73
     7
 74
     0
 42
0.00000001
 43
0.00000001
 12
1.0
 22
0.0
 32
0.0
 13
1.0
 23
0.0
 33
0.0
 40
0.0
 40
0.0
 40
0.0
 40
0.0
 40
0.2802855621447779
 40
0.5603662015848908
 40
0.7802502674214284
 40
1.0
 40
1.0
 40
1.0
 40
1.0
 10
7.222189675241586
 20
4.016020884375508
 30
0.0
 10
7.222189675241586
 20
4.013070613739633
 30
0.0
 10
7.222189675241586
 20
4.007172229473166
 30
0.0
 10
7.222189675241586
 20
4.000583023035333
 30
0.0
 10
7.222189675241586
 20
3.99666640800007
 30
0.0
 10
7.222189675241586
 20
3.996201517104179
 30
0.0
 10
7.222189675241586
 20
3.995969142681606
 30
0.0
  0
LINE
  5
D4
330
1F
100
AcDbEntity
  8
0
  6
Continuous
 62
     7
370
    15
100
AcDbLine
 10
7.2221896752
 20
4.0160208844
 30
0.0
 11
7.2415466356
 21
4.0160208844
 31
0.0
  0
LINE
  5
D5
330
1F
100
AcDbEntity
  8
0
  6
Continuous
 62
     7
370
    15
100
AcDbLine
 10
7.2415466356
 20
4.0160208844
 30
0.0
 11
7.2415496863
 21
4.0160208844
 31
0.0
  0
SPLINE
  5
D6
330
1F
100
AcDbEntity
  8
0
  6
Continuous
 62
     7
370
    15
100
AcDbSpline
210
0.0
220
0.0
230
1.0
 70
     8
 71
     3
 72
     9
 73
     5
 74
     0
 42
0.00000001
 43
0.00000001
 12
1.0
 22
0.0
 32
0.0
 13
1.0
 23
0.0
 33
0.0
 40
0.0
 40
0.0
 40
0.0
 40
0.0
 40
0.3355704509767457
 40
1.0
 40
1.0
 40
1.0
 40
1.0
 10
7.241540534365477
 20
4.015752194146107
 30
0.0
 10
7.24154154951923
 20
4.015782251119058
 30
0.0
 10
7.241544574677582
 20
4.015871820903472
 30
0.0
 10
7.241547645749095
 20
4.015961379198158
 30
0.0
 10
7.241549686259754
 20
4.016020884375509
 30
0.0
  0
SPLINE
  5
D7
330
1F
100
AcDbEntity
  8
0
  6
Continuous
 62
     7
370
    15
100
AcDbSpline
210
0.0
220
0.0
230
1.0
 70
     8
 71
     3
 72
    13
 73
     9
 74
     0
 42
0.00000001
 43
0.00000001
 12
1.0
 22
0.0
 32
0.0
 13
1.0
 23
0.0
 33
0.0
 40
0.0
 40
0.0
 40
0.0
 40
0.0
 40
0.0026524159044326
 40
0.2179468860367623
 40
0.4363901374535295
 40
0.5327667714843647
 40
0.7536978056119753
 40
1.0
 40
1.0
 40
1.0
 40
1.0
 10
7.241543584996903
 20
3.995979643893629
 30
0.0
 10
7.241543584916645
 20
3.995980961924512
 30
0.0
 10
7.241543578321804
 20
3.996089263464373
 30
0.0
 10
7.241546820175093
 20
3.9967819065312
 30
0.0
 10
7.24154763073544
 20
3.999577804973459
 30
0.0
 10
7.241544272826247
 20
4.003385523060601
 30
0.0
 10
7.241548611564841
 20
4.008372196508919
 30
0.0
 10
7.241544244466797
 20
4.013204686391104
 30
0.0
 10
7.241541942349212
 20
4.015752135480119
 30
0.0
  0
SPLINE
  5
D8
330
1F
100
AcDbEntity
  8
0
  6
Continuous
 62
     7
370
    15
100
AcDbSpline
210
0.0
220
0.0
230
1.0
 70
     8
 71
     3
 72
    13
 73
     9
 74
     0
 42
0.00000001
 43
0.00000001
 12
1.0
 22
0.0
 32
0.0
 13
1.0
 23
0.0
 33
0.0
 40
0.0
 40
0.0
 40
0.0
 40
0.0
 40
0.1663887829798661
 40
0.3330989986248256
 40
0.4998215676565813
 40
0.6665339753170048
 40
0.8332607087046232
 40
1.0
 40
1.0
 40
1.0
 40
1.0
 10
7.244542590352137
 20
3.998977358597106
 30
0.0
 10
7.244522768082009
 20
3.998716475765076
 30
0.0
 10
7.244483085248759
 20
3.998194206123149
 30
0.0
 10
7.244168696630226
 20
3.99746371589
 30
0.0
 10
7.243689757105932
 20
3.996834739073812
 30
0.0
 10
7.243060598851037
 20
3.996355531717678
 30
0.0
 10
7.242329047514322
 20
3.996040187636845
 30
0.0
 10
7.241805412409187
 20
3.995999825648028
 30
0.0
 10
7.241543584996903
 20
3.995979643893629
 30
0.0
  0
SPLINE
  5
D9
330
1F
100
AcDbEntity
  8
0
  6
Continuous
 62
     7
370
    15
100
AcDbSpline
210
0.0
220
0.0
230
1.0
 70
     8
 71
     3
 72
    14
 73
    10
 74
     0
 42
0.00000001
 43
0.00000001
 12
1.0
 22
0.0
 32
0.0
 13
1.0
 23
0.0
 33
0.0
 40
0.0
 40
0.0
 40
0.0
 40
0.0
 40
0.0092006137421911
 40
0.1743457006088328
 40
0.3394708019750444
 40
0.5045813246084564
 40
0.6697077908563471
 40
0.8348668687728298
 40
1.0
 40
1.0
 40
1.0
 40
1.0
 10
7.244536254425331
 20
4.015933941379882
 30
0.0
 10
7.244538302498931
 20
4.015933081297935
 30
0.0
 10
7.244577112173664
 20
4.015916783299354
 30
0.0
 10
7.244458575306129
 20
4.015884309764688
 30
0.0
 10
7.24417445982801
 20
4.015840805893967
 30
0.0
 10
7.243687326583363
 20
4.015803138230639
 30
0.0
 10
7.24306013237269
 20
4.015774482175845
 30
0.0
 10
7.242327558901333
 20
4.015755701415443
 30
0.0
 10
7.241803800818338
 20
4.015753324062975
 30
0.0
 10
7.241541942349212
 20
4.015752135480119
 30
0.0
  0
SPLINE
  5
DA
330
1F
100
AcDbEntity
  8
0
  6
Continuous
 62
     7
370
    15
100
AcDbSpline
210
0.0
220
0.0
230
1.0
 70
     8
 71
     3
 72
     9
 73
     5
 74
     0
 42
0.00000001
 43
0.00000001
 12
1.0
 22
0.0
 32
0.0
 13
1.0
 23
0.0
 33
0.0
 40
0.0
 40
0.0
 40
0.0
 40
0.0
 40
0.6662292809738702
 40
1.0
 40
1.0
 40
1.0
 40
1.0
 10
7.241548512939975
 20
4.361057447817018
 30
0.0
 10
7.241547156301397
 20
4.361105885578779
 30
0.0
 10
7.241545120007562
 20
4.361178589921181
 30
0.0
 10
7.241543265366094
 20
4.361251299601621
 30
0.0
 10
7.24154264634108
 20
4.361275567963943
 30
0.0
  0
LINE
  5
DB
330
1F
100
AcDbEntity
  8
0
  6
Continuous
 62
     7
370
    15
100
AcDbLine
 10
7.2221896752
 20
4.3610574478
 30
0.0
 11
7.2415475743
 21
4.3610574478
 31
0.0
  0
SPLINE
  5
DC
330
1F
100
AcDbEntity
  8
0
  6
Continuous
 62
     7
370
    15
100
AcDbSpline
210
0.0
220
0.0
230
1.0
 70
    24
 71
     3
 72
    11
 73
     7
 74
     0
 42
0.00000001
 43
0.00000001
 12
1.0
 22
0.0
 32
0.0
 13
1.0
 23
0.0
 33
0.0
 40
0.0
 40
0.0
 40
0.0
 40
0.0
 40
0.2799212624454375
 40
0.559897267201563
 40
0.7799423941387793
 40
1.0
 40
1.0
 40
1.0
 40
1.0
 10
7.222189675241586
 20
4.38110918951092
 30
0.0
 10
7.222189675241586
 20
4.380730701935956
 30
0.0
 10
7.222189675241586
 20
4.379973652767768
 30
0.0
 10
7.222189675241588
 20
4.374596984976556
 30
0.0
 10
7.222189675241588
 20
4.367986276512128
 30
0.0
 10
7.222189675241586
 20
4.363367101040301
 30
0.0
 10
7.222189675241586
 20
4.361057447817018
 30
0.0
  0
LINE
  5
DD
330
1F
100
AcDbEntity
  8
0
  6
Continuous
 62
     7
370
    15
100
AcDbLine
 10
7.2221896752
 20
4.3811091895
 30
0.0
 11
7.2415466356
 21
4.3811091895
 31
0.0
  0
LINE
  5
DE
330
1F
100
AcDbEntity
  8
0
  6
Continuous
 62
     7
370
    15
100
AcDbLine
 10
7.2415466356
 20
4.3811091895
 30
0.0
 11
7.2415496863
 21
4.3811091895
 31
0.0
  0
SPLINE
  5
DF
330
1F
100
AcDbEntity
  8
0
  6
Continuous
 62
     7
370
    15
100
AcDbSpline
210
0.0
220
0.0
230
1.0
 70
     8
 71
     3
 72
     9
 73
     5
 74
     0
 42
0.00000001
 43
0.00000001
 12
1.0
 22
0.0
 32
0.0
 13
1.0
 23
0.0
 33
0.0
 40
0.0
 40
0.0
 40
0.0
 40
0.0
 40
0.3359543939222556
 40
1.0
 40
1.0
 40
1.0
 40
1.0
 10
7.241540534365477
 20
4.381093291027914
 30
0.0
 10
7.241541549219977
 20
4.381095070347033
 30
0.0
 10
7.241544570030292
 20
4.381100366658533
 30
0.0
 10
7.241547644603155
 20
4.381105668708162
 30
0.0
 10
7.241549686259754
 20
4.38110918951092
 30
0.0
  0
SPLINE
  5
E0
330
1F
100
AcDbEntity
  8
0
  6
Continuous
 62
     7
370
    15
100
AcDbSpline
210
0.0
220
0.0
230
1.0
 70
     8
 71
     3
 72
    13
 73
     9
 74
     0
 42
0.00000001
 43
0.00000001
 12
1.0
 22
0.0
 32
0.0
 13
1.0
 23
0.0
 33
0.0
 40
0.0
 40
0.0
 40
0.0
 40
0.0
 40
0.0028635771634608
 40
0.218038061041541
 40
0.4363014204121067
 40
0.5343423717032311
 40
0.7554345724710855
 40
1.0
 40
1.0
 40
1.0
 40
1.0
 10
7.241543584996903
 20
4.361275626629931
 30
0.0
 10
7.241543584903164
 20
4.361305056541348
 30
0.0
 10
7.241543577765803
 20
4.363545904423483
 30
0.0
 10
7.241546825871164
 20
4.368059836426555
 30
0.0
 10
7.241547615297713
 20
4.372916733553413
 30
0.0
 10
7.241544280784116
 20
4.376902607999642
 30
0.0
 10
7.241548606165581
 20
4.380215086341927
 30
0.0
 10
7.241544237035487
 20
4.380790881098069
 30
0.0
 10
7.241541942349212
 20
4.381093291027914
 30
0.0
  0
SPLINE
  5
E1
330
1F
100
AcDbEntity
  8
0
  6
Continuous
 62
     7
370
    15
100
AcDbSpline
210
0.0
220
0.0
230
1.0
 70
     8
 71
     3
 72
    14
 73
    10
 74
     0
 42
0.00000001
 43
0.00000001
 12
1.0
 22
0.0
 32
0.0
 13
1.0
 23
0.0
 33
0.0
 40
0.0
 40
0.0
 40
0.0
 40
0.0
 40
0.1655788624146453
 40
0.331151706373406
 40
0.4967212533902955
 40
0.6622578250549935
 40
0.8278444480437841
 40
0.9933907544241298
 40
1.0
 40
1.0
 40
1.0
 40
1.0
 10
7.241541942349212
 20
4.381093291027914
 30
0.0
 10
7.241803735210064
 20
4.381072985874495
 30
0.0
 10
7.242327311416132
 20
4.381032376305707
 30
0.0
 10
7.243059415049642
 20
4.380716751144541
 30
0.0
 10
7.243686432439698
 20
4.380237631369295
 30
0.0
 10
7.244173060366916
 20
4.379608151944804
 30
0.0
 10
7.244458168893163
 20
4.37887944101017
 30
0.0
 10
7.244574187678493
 20
4.378342157179036
 30
0.0
 10
7.244538334847759
 20
4.378073788985742
 30
0.0
 10
7.244536958417198
 20
4.37806348602848
 30
0.0
  0
SPLINE
  5
E2
330
1F
100
AcDbEntity
  8
0
  6
Continuous
 62
     7
370
    15
100
AcDbSpline
210
0.0
220
0.0
230
1.0
 70
     8
 71
     3
 72
    14
 73
    10
 74
     0
 42
0.00000001
 43
0.00000001
 12
1.0
 22
0.0
 32
0.0
 13
1.0
 23
0.0
 33
0.0
 40
0.0
 40
0.0
 40
0.0
 40
0.0
 40
0.1662910063199006
 40
0.3326173821279432
 40
0.4989297093688638
 40
0.6652549793383717
 40
0.8315914272200273
 40
0.9979149859470455
 40
1.0
 40
1.0
 40
1.0
 40
1.0
 10
7.241543584996903
 20
4.361275626629931
 30
0.0
 10
7.24180537307212
 20
4.36127474020464
 30
0.0
 10
7.242329004903919
 20
4.361272967165517
 30
0.0
 10
7.243061279504056
 20
4.361257748809778
 30
0.0
 10
7.243688561279731
 20
4.361234696799281
 30
0.0
 10
7.244175660726603
 20
4.361204133793229
 30
0.0
 10
7.244460975517956
 20
4.361168863773689
 30
0.0
 10
7.244574709427976
 20
4.361142808126885
 30
0.0
 10
7.24454275135117
 20
4.361130174063749
 30
0.0
 10
7.244542355688181
 20
4.361130017645352
 30
0.0
  0
LINE
  5
E3
330
1F
100
AcDbEntity
  8
0
  6
Continuous
 62
     7
370
    15
100
AcDbLine
 10
7.2415466356
 20
4.0160208844
 30
0.0
 11
7.2415466356
 21
4.3610574478
 31
0.0
  0
SPLINE
  5
E4
330
1F
100
AcDbEntity
  8
0
  6
Continuous
 62
     7
370
    15
100
AcDbSpline
210
0.0
220
0.0
230
1.0
 70
     8
 71
     3
 72
    13
 73
     9
 74
     0
 42
0.00000001
 43
0.00000001
 12
1.0
 22
0.0
 32
0.0
 13
1.0
 23
0.0
 33
0.0
 40
0.0
 40
0.0
 40
0.0
 40
0.0
 40
0.1666807693878364
 40
0.3333319209545624
 40
0.5000075979331149
 40
0.6666680790454377
 40
0.8333192306121636
 40
1.0
 40
1.0
 40
1.0
 40
1.0
 10
7.241546635628328
 20
4.361057447817018
 30
0.0
 10
7.24180845989327
 20
4.361054436475224
 30
0.0
 10
7.242332061899102
 20
4.361048414326728
 30
0.0
 10
7.243063670097372
 20
4.361039377707444
 30
0.0
 10
7.243693074705931
 20
4.361030344705669
 30
0.0
 10
7.244171921861858
 20
4.361021309898052
 30
0.0
 10
7.244486791807478
 20
4.361012274028562
 30
0.0
 10
7.244526649181592
 20
4.361006251816704
 30
0.0
 10
7.244546579639385
 20
4.361003240443226
 30
0.0
  0
SPLINE
  5
E5
330
1F
100
AcDbEntity
  8
0
  6
Continuous
 62
     7
370
    15
100
AcDbSpline
210
0.0
220
0.0
230
1.0
 70
     8
 71
     3
 72
    12
 73
     8
 74
     0
 42
0.00000001
 43
0.00000001
 12
1.0
 22
0.0
 32
0.0
 13
1.0
 23
0.0
 33
0.0
 40
0.0
 40
0.0
 40
0.0
 40
0.0
 40
0.2147732506427496
 40
0.4295167343963163
 40
0.6442382752186577
 40
0.8590233683291726
 40
1.0
 40
1.0
 40
1.0
 40
1.0
 10
7.241549686259754
 20
4.016020884375508
 30
0.0
 10
7.241886640693024
 20
4.016016124539607
 30
0.0
 10
7.242560502858749
 20
4.016006605527499
 30
0.0
 10
7.243460443438473
 20
4.016006546913351
 30
0.0
 10
7.244131388489353
 20
4.016017537721926
 30
0.0
 10
7.244511732628705
 20
4.016036019982891
 30
0.0
 10
7.244509295262418
 20
4.016052574565504
 30
0.0
 10
7.244508329414589
 20
4.016059134600305
 30
0.0
  0
LINE
  5
E6
330
1F
100
AcDbEntity
  8
0
  6
Continuous
 62
     7
370
    15
100
AcDbLine
 10
7.2221896752
 20
4.3610574478
 30
0.0
 11
7.2221896752
 21
4.0160208844
 31
0.0
  0
LINE
  5
E7
330
1F
100
AcDbEntity
  8
0
  6
Continuous
 62
     7
370
    15
100
AcDbLine
 10
7.2163319936
 20
4.3610574478
 30
0.0
 11
7.2221896752
 21
4.3610574478
 31
0.0
  0
SPLINE
  5
E8
330
1F
100
AcDbEntity
  8
0
  6
Continuous
 62
     7
370
    15
100
AcDbSpline
210
0.0
220
0.0
230
1.0
 70
    24
 71
     3
 72
    11
 73
     7
 74
     0
 42
0.00000001
 43
0.00000001
 12
1.0
 22
0.0
 32
0.0
 13
1.0
 23
0.0
 33
0.0
 40
0.0
 40
0.0
 40
0.0
 40
0.0
 40
0.2798121243006993
 40
0.5596744178714873
 40
0.7798420950618054
 40
1.0
 40
1.0
 40
1.0
 40
1.0
 10
7.216189787219471
 20
4.375109184156828
 30
0.0
 10
7.216189787219472
 20
4.374844205405705
 30
0.0
 10
7.216189787219472
 20
4.374314200393761
 30
0.0
 10
7.21618978721947
 20
4.370549049148623
 30
0.0
 10
7.216189787219472
 20
4.365916153320653
 30
0.0
 10
7.216189787219471
 20
4.362676992355735
 30
0.0
 10
7.216189787219472
 20
4.361057447817018
 30
0.0
  0
LINE
  5
E9
330
1F
100
AcDbEntity
  8
0
  6
Continuous
 62
     7
370
    15
100
AcDbLine
 10
7.2165903586
 20
4.3755098729
 30
0.0
 11
7.2221896752
 21
4.3811091895
 31
0.0
  0
LINE
  5
EA
330
1F
100
AcDbEntity
  8
0
  6
Continuous
 62
     7
370
    15
100
AcDbLine
 10
7.2165903586
 20
4.0015684593
 30
0.0
 11
7.2221896752
 21
3.9959691427
 31
0.0
  0
SPLINE
  5
EB
330
1F
100
AcDbEntity
  8
0
  6
Continuous
 62
     7
370
    15
100
AcDbSpline
210
0.0
220
0.0
230
1.0
 70
    24
 71
     3
 72
    11
 73
     7
 74
     0
 42
0.00000001
 43
0.00000001
 12
1.0
 22
0.0
 32
0.0
 13
1.0
 23
0.0
 33
0.0
 40
0.0
 40
0.0
 40
0.0
 40
0.0
 40
0.2800004227051294
 40
0.5599167161969401
 40
0.7799974670630822
 40
1.0
 40
1.0
 40
1.0
 40
1.0
 10
7.216189787219471
 20
4.016020884375508
 30
0.0
 10
7.216189787219471
 20
4.013955264025605
 30
0.0
 10
7.216189787219471
 20
4.009824643964199
 30
0.0
 10
7.216189787219472
 20
4.005206583809858
 30
0.0
 10
7.216189787219471
 20
4.00245816452413
 30
0.0
 10
7.216189787219471
 20
4.002132134216245
 30
0.0
 10
7.216189787219471
 20
4.001969148035699
 30
0.0
  0
LINE
  5
EC
330
1F
100
AcDbEntity
  8
0
  6
Continuous
 62
     7
370
    15
100
AcDbLine
 10
7.2163319936
 20
4.0160208844
 30
0.0
 11
7.2221896752
 21
4.0160208844
 31
0.0
  0
LINE
  5
ED
330
1F
100
AcDbEntity
  8
0
  6
Continuous
 62
     7
370
    15
100
AcDbLine
 10
7.2415496863
 20
4.3811091895
 30
0.0
 11
7.2419939051
 21
4.3810330997
 31
0.0
  0
SPLINE
  5
EE
330
1F
100
AcDbEntity
  8
0
  6
Continuous
 62
     7
370
    15
100
AcDbSpline
210
0.0
220
0.0
230
1.0
 70
     8
 71
     3
 72
    14
 73
    10
 74
     0
 42
0.00000001
 43
0.00000001
 12
1.0
 22
0.0
 32
0.0
 13
1.0
 23
0.0
 33
0.0
 40
0.0
 40
0.0
 40
0.0
 40
0.0
 40
0.00656600687987
 40
0.1721398176369723
 40
0.3377196996986848
 40
0.5032662548893665
 40
0.6688551350409038
 40
0.8344168480447197
 40
1.0
 40
1.0
 40
1.0
 40
1.0
 10
7.244542590352137
 20
3.998999945002853
 30
0.0
 10
7.244543966539054
 20
3.998989680982844
 30
0.0
 10
7.244580045783126
 20
3.998720591022262
 30
0.0
 10
7.24446302591061
 20
3.99818243874522
 30
0.0
 10
7.244178350858888
 20
3.997452466832625
 30
0.0
 10
7.24369130859903
 20
3.996822638784064
 30
0.0
 10
7.243064136158271
 20
3.996343767006493
 30
0.0
 10
7.242331967742871
 20
3.996028770988493
 30
0.0
 10
7.241808424298243
 20
3.995989019641761
 30
0.0
 10
7.241546635628328
 20
3.995969142681606
 30
0.0
  0
ARC
  5
EF
330
1F
100
AcDbEntity
  8
0
  6
Continuous
 62
     7
370
    15
100
AcDbCircle
 10
7.2876391334
 20
4.3667588286
 30
0.0
 40
0.072205190603533
100
AcDbArc
 50
173.0406926444
 51
184.9594307695
  0
LINE
  5
F0
330
1F
100
AcDbEntity
  8
0
  6
Continuous
 62
     7
370
    15
100
AcDbLine
 10
7.2166105397
 20
4.375530054
 30
0.0
 11
7.2159659178
 21
4.3755075262
 31
0.0
  0
LINE
  5
F1
330
1F
100
AcDbEntity
  8
0
  6
Continuous
 62
     7
370
    15
100
AcDbLine
 10
7.0763352322
 20
4.355649793
 30
0.0
 11
7.048451053
 21
4.3455007529
 31
0.0
  0
LINE
  5
F2
330
1F
100
AcDbEntity
  8
0
  6
Continuous
 62
     7
370
    15
100
AcDbLine
 10
7.2157042675
 20
4.3605166647
 30
0.0
 11
7.0763352322
 21
4.355649793
 31
0.0
  0
LINE
  5
F3
330
1F
100
AcDbEntity
  8
0
  6
Continuous
 62
     7
370
    15
100
AcDbLine
 10
7.048451053
 20
4.3455007529
 30
0.0
 11
7.1358427261
 21
4.0193504726
 31
0.0
  0
LINE
  5
F4
330
1F
100
AcDbEntity
  8
0
  6
Continuous
 62
     7
370
    15
100
AcDbLine
 10
7.2166105397
 20
4.0015482782
 30
0.0
 11
7.1361043764
 21
4.0043596111
 31
0.0
  0
ARC
  5
F5
330
1F
100
AcDbEntity
  8
0
  6
Continuous
 62
     7
370
    15
100
AcDbCircle
 10
7.2077778542
 20
4.0131083132
 30
0.0
 40
0.0722054514539048
100
AcDbArc
 50
175.0405908373
 51
186.9592857487
  0
ARC
  5
F6
330
1F
100
AcDbEntity
  8
0
  6
Continuous
 62
     7
370
    15
100
AcDbCircle
 10
7.1482700981
 20
4.3618919569
 30
0.0
 40
0.0722051906033603
100
AcDbArc
 50
173.0406926444
 51
184.9594307696
  0
LINE
  5
F7
330
1F
100
AcDbEntity
  8
0
  6
Continuous
 62
     7
370
    15
100
AcDbLine
 10
7.0765968825
 20
4.3706406544
 30
0.0
 11
7.2159659178
 21
4.3755075262
 31
0.0
  0
ARC
  5
F8
330
1F
100
AcDbEntity
  8
0
  6
Continuous
 62
     7
370
    15
100
AcDbCircle
 10
7.199292045
 20
3.7692557015
 30
0.0
 40
0.258017849418053
100
AcDbArc
 50
104.2356525365
 51
107.3989208147
  0
LINE
  5
F9
330
1F
100
AcDbEntity
  8
0
  6
Continuous
 62
     7
370
    15
100
AcDbLine
 10
7.1221388204
 20
4.0154681921
 30
0.0
 11
7.0347471473
 21
4.3416184724
 31
0.0
  0
ARC
  5
FA
330
1F
100
AcDbEntity
  8
0
  6
Continuous
 62
     7
370
    15
100
AcDbCircle
 10
7.1119003719
 20
4.0954059817
 30
0.0
 40
0.2580178494178485
100
AcDbArc
 50
104.2356525365
 51
107.3989208147
  0
ARC
  5
FB
330
1F
100
AcDbEntity
  8
0
  6
Continuous
 62
     7
370
    15
100
AcDbCircle
 10
7.1366277662
 20
4.0193504876
 30
0.0
 40
0.0149999999999997
100
AcDbArc
 50
195.0
 51
268.0
  0
ARC
  5
FC
330
1F
100
AcDbEntity
  8
0
  6
Continuous
 62
     7
370
    15
100
AcDbCircle
 10
7.1455640287
 20
4.3847088528
 30
0.0
 40
0.0750803252339197
100
AcDbArc
 50
191.4961581651
 51
202.770420323
  0
ARC
  5
FD
330
1F
100
AcDbEntity
  8
0
  6
Continuous
 62
     7
370
    15
100
AcDbCircle
 10
7.0771203071
 20
4.3556498029
 30
0.0
 40
0.0150000000000004
100
AcDbArc
 50
92.0
 51
110.0
  0
ARC
  5
FE
330
1F
100
AcDbEntity
  8
0
  6
Continuous
 62
     7
370
    15
100
AcDbCircle
 10
7.1176313956
 20
4.3745448756
 30
0.0
 40
0.0750298665247815
100
AcDbArc
 50
191.4923548177
 51
202.7742236704
  0
LINE
  5
FF
330
1F
100
AcDbEntity
  8
0
  6
Continuous
 62
     7
370
    15
100
AcDbLine
 10
7.0441057805
 20
4.3595961367
 30
0.0
 11
7.0719899597
 21
4.3697451768
 31
0.0
  0
ARC
  5
100
330
1F
100
AcDbEntity
  8
0
  6
Continuous
 62
     7
370
    15
100
AcDbCircle
 10
7.049236062
 20
4.3455007677
 30
0.0
 40
0.0150000000000008
100
AcDbArc
 50
110.0
 51
195.0
  0
LINE
  5
101
330
1F
100
AcDbEntity
  8
0
  6
Continuous
 62
     7
370
    15
100
AcDbLine
 10
6.873526439
 20
4.126974696
 30
0.0
 11
6.8542668642
 21
4.1215838782
 31
0.0
  0
SPLINE
  5
102
330
1F
100
AcDbEntity
  8
0
  6
Continuous
 62
     7
370
    15
100
AcDbSpline
210
0.0
220
0.0
230
1.0
 70
     8
 71
     3
 72
    17
 73
    13
 74
     0
 42
0.00000001
 43
0.00000001
 12
1.0
 22
0.0
 32
0.0
 13
1.0
 23
0.0
 33
0.0
 40
0.0
 40
0.0
 40
0.0
 40
0.0
 40
0.1073263948579928
 40
0.2146368303303636
 40
0.3220052951871746
 40
0.4294009594196245
 40
0.5367458709134018
 40
0.6440358331811807
 40
0.751355145501432
 40
0.8587399347948066
 40
0.9661347735765353
 40
1.0
 40
1.0
 40
1.0
 40
1.0
 10
6.870831088832626
 20
4.136604542049472
 30
0.0
 10
6.871387237024561
 20
4.136702830771916
 30
0.0
 10
6.872499450709453
 20
4.136899393601316
 30
0.0
 10
6.874172351466544
 20
4.136473325709164
 30
0.0
 10
6.875610007854069
 20
4.135558372758956
 30
0.0
 10
6.876664188743185
 20
4.134207955472735
 30
0.0
 10
6.87721166798528
 20
4.132587731793844
 30
0.0
 10
6.877192337174823
 20
4.130877777681085
 30
0.0
 10
6.876608229935918
 20
4.12926931155677
 30
0.0
 10
6.875524727783897
 20
4.127949597898473
 30
0.0
 10
6.874397415350962
 20
4.127249387927445
 30
0.0
 10
6.873694865931159
 20
4.127027815105275
 30
0.0
 10
6.873526439029043
 20
4.126974695960942
 30
0.0
  0
LINE
  5
103
330
1F
100
AcDbEntity
  8
0
  6
Continuous
 62
     7
370
    15
100
AcDbLine
 10
6.8515712793
 20
4.131213783
 30
0.0
 11
6.8708310888
 21
4.136604542
 31
0.0
  0
SPLINE
  5
104
330
1F
100
AcDbEntity
  8
0
  6
Continuous
 62
     7
370
    15
100
AcDbSpline
210
0.0
220
0.0
230
1.0
 70
     8
 71
     3
 72
    18
 73
    14
 74
     0
 42
0.00000001
 43
0.00000001
 12
1.0
 22
0.0
 32
0.0
 13
1.0
 23
0.0
 33
0.0
 40
0.0
 40
0.0
 40
0.0
 40
0.0
 40
0.0081227834428016
 40
0.1120181103606499
 40
0.2160151629893097
 40
0.3218627189381339
 40
0.4301898165293965
 40
0.5008564929769351
 40
0.6100789627284773
 40
0.7193447401611816
 40
0.8274619157667182
 40
0.9340637396542656
 40
1.0
 40
1.0
 40
1.0
 40
1.0
 10
6.864092713341581
 20
4.160679303935768
 30
0.0
 10
6.864133958966054
 20
4.160690479755018
 30
0.0
 10
6.864702761144116
 20
4.160844601080898
 30
0.0
 10
6.865860404112499
 20
4.16093746853706
 30
0.0
 10
6.867478610568694
 20
4.160529683691456
 30
0.0
 10
6.86888929210676
 20
4.159613593116061
 30
0.0
 10
6.869809298841419
 20
4.158427717998875
 30
0.0
 10
6.870368727373674
 20
4.15703806148353
 30
0.0
 10
6.870527217688804
 20
4.155519567658927
 30
0.0
 10
6.870118115741919
 20
4.153834298052564
 30
0.0
 10
6.869168827907221
 20
4.152395323109943
 30
0.0
 10
6.867976915436325
 20
4.151463205621191
 30
0.0
 10
6.867116771636218
 20
4.15116381337203
 30
0.0
 10
6.866788063537999
 20
4.15104939918125
 30
0.0
  0
LINE
  5
105
330
1F
100
AcDbEntity
  8
0
  6
Continuous
 62
     7
370
    15
100
AcDbLine
 10
6.8448329038
 20
4.1552885449
 30
0.0
 11
6.8640927133
 21
4.1606793039
 31
0.0
  0
SPLINE
  5
106
330
1F
100
AcDbEntity
  8
0
  6
Continuous
 62
     7
370
    15
100
AcDbSpline
210
0.0
220
0.0
230
1.0
 70
     8
 71
     3
 72
    17
 73
    13
 74
     0
 42
0.00000001
 43
0.00000001
 12
1.0
 22
0.0
 32
0.0
 13
1.0
 23
0.0
 33
0.0
 40
0.0
 40
0.0
 40
0.0
 40
0.0
 40
0.0400169069384357
 40
0.1452148170265001
 40
0.2506341407716531
 40
0.3568643944931776
 40
0.4644460743487782
 40
0.573598875932057
 40
0.6838656483664723
 40
0.7939647371986552
 40
0.9022795816758484
 40
1.0
 40
1.0
 40
1.0
 40
1.0
 10
6.847528254028962
 20
4.145658640122425
 30
0.0
 10
6.847323327264621
 20
4.145609733582655
 30
0.0
 10
6.846579681519253
 20
4.145432259740538
 30
0.0
 10
6.845231288633896
 20
4.145472532725039
 30
0.0
 10
6.843647295488397
 20
4.146054069093773
 30
0.0
 10
6.84233685227194
 20
4.147130413488006
 30
0.0
 10
6.841447703829007
 20
4.148584913149914
 30
0.0
 10
6.841086740169269
 20
4.150266447605971
 30
0.0
 10
6.841310726325467
 20
4.151989253258424
 30
0.0
 10
6.842105836926197
 20
4.153530365362343
 30
0.0
 10
6.843327430317203
 20
4.154715808890042
 30
0.0
 10
6.84434858202118
 20
4.155104291532211
 30
0.0
 10
6.844832903832544
 20
4.155288544876944
 30
0.0
  0
LINE
  5
107
330
1F
100
AcDbEntity
  8
0
  6
Continuous
 62
     7
370
    15
100
AcDbLine
 10
6.8667880635
 20
4.1510493992
 30
0.0
 11
6.847528254
 21
4.1456586401
 31
0.0
  0
SPLINE
  5
108
330
1F
100
AcDbEntity
  8
0
  6
Continuous
 62
     7
370
    15
100
AcDbSpline
210
0.0
220
0.0
230
1.0
 70
     8
 71
     3
 72
    18
 73
    14
 74
     0
 42
0.00000001
 43
0.00000001
 12
1.0
 22
0.0
 32
0.0
 13
1.0
 23
0.0
 33
0.0
 40
0.0
 40
0.0
 40
0.0
 40
0.0
 40
0.0249492359425259
 40
0.1193742523157273
 40
0.2150772581406121
 40
0.3170982033955517
 40
0.4277656861610736
 40
0.5021507039785816
 40
0.6191811572995515
 40
0.7363952808254269
 40
0.8482244506887187
 40
0.9525649704174153
 40
1.0
 40
1.0
 40
1.0
 40
1.0
 10
6.857354103186581
 20
4.184754007156076
 30
0.0
 10
6.857485305837968
 20
4.184787186945164
 30
0.0
 10
6.858113069287207
 20
4.184945941807381
 30
0.0
 10
6.859299033687309
 20
4.184981007139606
 30
0.0
 10
6.860808931523074
 20
4.184563086424669
 30
0.0
 10
6.862157023604225
 20
4.183676023896883
 30
0.0
 10
6.863064809559714
 20
4.182513698933215
 30
0.0
 10
6.863638105571218
 20
4.181100101404645
 30
0.0
 10
6.863793285119285
 20
4.179518433873329
 30
0.0
 10
6.863323347498976
 20
4.177757620273987
 30
0.0
 10
6.862272981031546
 20
4.176299716826543
 30
0.0
 10
6.861076960613856
 20
4.175464291268722
 30
0.0
 10
6.860294297067575
 20
4.17520515117482
 30
0.0
 10
6.860049688046955
 20
4.175124161067546
 30
0.0
  0
LINE
  5
109
330
1F
100
AcDbEntity
  8
0
  6
Continuous
 62
     7
370
    15
100
AcDbLine
 10
6.8380945283
 20
4.1793632481
 30
0.0
 11
6.8573541032
 21
4.1847540072
 31
0.0
  0
SPLINE
  5
10A
330
1F
100
AcDbEntity
  8
0
  6
Continuous
 62
     7
370
    15
100
AcDbSpline
210
0.0
220
0.0
230
1.0
 70
     8
 71
     3
 72
    17
 73
    13
 74
     0
 42
0.00000001
 43
0.00000001
 12
1.0
 22
0.0
 32
0.0
 13
1.0
 23
0.0
 33
0.0
 40
0.0
 40
0.0
 40
0.0
 40
0.0
 40
0.0519836032794963
 40
0.1492196707701912
 40
0.2481048061739276
 40
0.3515591374317035
 40
0.4614844469656509
 40
0.5779734328194306
 40
0.6981110736136537
 40
0.8158745664034712
 40
0.9251018636250145
 40
1.0
 40
1.0
 40
1.0
 40
1.0
 10
6.840789878537917
 20
4.169733343342733
 30
0.0
 10
6.840514360259872
 20
4.169671158681813
 30
0.0
 10
6.839723481133625
 20
4.16949265673035
 30
0.0
 10
6.838357998504134
 20
4.169584821443104
 30
0.0
 10
6.836857348223658
 20
4.170167509708773
 30
0.0
 10
6.8355912391606
 20
4.171218339583866
 30
0.0
 10
6.834702446561811
 20
4.17266887866718
 30
0.0
 10
6.834336613025549
 20
4.174400726532715
 30
0.0
 10
6.83460582697467
 20
4.176209165784131
 30
0.0
 10
6.835508793141319
 20
4.177801258711947
 30
0.0
 10
6.836766310737652
 20
4.178885189207704
 30
0.0
 10
6.837710466677769
 20
4.179225014654215
 30
0.0
 10
6.838094528341499
 20
4.179363248097251
 30
0.0
  0
LINE
  5
10B
330
1F
100
AcDbEntity
  8
0
  6
Continuous
 62
     7
370
    15
100
AcDbLine
 10
6.860049688
 20
4.1751241611
 30
0.0
 11
6.8407898785
 21
4.1697333433
 31
0.0
  0
SPLINE
  5
10C
330
1F
100
AcDbEntity
  8
0
  6
Continuous
 62
     7
370
    15
100
AcDbSpline
210
0.0
220
0.0
230
1.0
 70
     8
 71
     3
 72
    19
 73
    15
 74
     0
 42
0.00000001
 43
0.00000001
 12
1.0
 22
0.0
 32
0.0
 13
1.0
 23
0.0
 33
0.0
 40
0.0
 40
0.0
 40
0.0
 40
0.0
 40
0.0063781347216277
 40
0.0855356940651388
 40
0.1648254204991471
 40
0.2540877712141173
 40
0.3603029104379791
 40
0.4864323485818684
 40
0.5043695831493776
 40
0.6509537880169989
 40
0.7655259166423487
 40
0.8807753557872363
 40
0.978740890705332
 40
1.0
 40
1.0
 40
1.0
 40
1.0
 10
6.850615727695536
 20
4.208828769042372
 30
0.0
 10
6.850651277385122
 20
4.208838451833822
 30
0.0
 10
6.851128026075015
 20
4.20896830551728
 30
0.0
 10
6.852089348659075
 20
4.209073191338535
 30
0.0
 10
6.85345555662304
 20
4.208851619990724
 30
0.0
 10
6.854771690724069
 20
4.208240422257056
 30
0.0
 10
6.855967373003035
 20
4.20716674308835
 30
0.0
 10
6.856553072813101
 20
4.206100169485484
 30
0.0
 10
6.856961217114838
 20
4.204776299731069
 30
0.0
 10
6.857054424709311
 20
4.203394469310149
 30
0.0
 10
6.856438828597362
 20
4.201543406885436
 30
0.0
 10
6.855281435850393
 20
4.20012871884027
 30
0.0
 10
6.854087470516273
 20
4.199435730299716
 30
0.0
 10
6.853428567745718
 20
4.199234708720456
 30
0.0
 10
6.853311077891953
 20
4.199198864287854
 30
0.0
  0
LINE
  5
10D
330
1F
100
AcDbEntity
  8
0
  6
Continuous
 62
     7
370
    15
100
AcDbLine
 10
6.8313559182
 20
4.20343801
 30
0.0
 11
6.8506157277
 21
4.208828769
 31
0.0
  0
SPLINE
  5
10E
330
1F
100
AcDbEntity
  8
0
  6
Continuous
 62
     7
370
    15
100
AcDbSpline
210
0.0
220
0.0
230
1.0
 70
     8
 71
     3
 72
    17
 73
    13
 74
     0
 42
0.00000001
 43
0.00000001
 12
1.0
 22
0.0
 32
0.0
 13
1.0
 23
0.0
 33
0.0
 40
0.0
 40
0.0
 40
0.0
 40
0.0
 40
0.0643718642745611
 40
0.1471492202747398
 40
0.2351116256256981
 40
0.334296349556029
 40
0.4492035826793259
 40
0.5809025150955538
 40
0.7225390203058784
 40
0.8291435352078813
 40
0.9174962001840637
 40
1.0
 40
1.0
 40
1.0
 40
1.0
 10
6.834051268382916
 20
4.193808105229029
 30
0.0
 10
6.833685451954336
 20
4.193731399214408
 30
0.0
 10
6.832849223225587
 20
4.193556055057934
 30
0.0
 10
6.831500742742132
 20
4.193703747776586
 30
0.0
 10
6.830131124809613
 20
4.194248701788904
 30
0.0
 10
6.828909977735941
 20
4.195234389452644
 30
0.0
 10
6.827984031345606
 20
4.196674316894637
 30
0.0
 10
6.827576369868318
 20
4.198508163166055
 30
0.0
 10
6.827890841598989
 20
4.200370433917439
 30
0.0
 10
6.828804320614214
 20
4.201875573391863
 30
0.0
 10
6.829973193855588
 20
4.202920416322309
 30
0.0
 10
6.830905650218968
 20
4.203269461675948
 30
0.0
 10
6.831355918186499
 20
4.203438009983548
 30
0.0
  0
LINE
  5
10F
330
1F
100
AcDbEntity
  8
0
  6
Continuous
 62
     7
370
    15
100
AcDbLine
 10
6.8533110779
 20
4.1991988643
 30
0.0
 11
6.8340512684
 21
4.1938081052
 31
0.0
  0
SPLINE
  5
110
330
1F
100
AcDbEntity
  8
0
  6
Continuous
 62
     7
370
    15
100
AcDbSpline
210
0.0
220
0.0
230
1.0
 70
     8
 71
     3
 72
    18
 73
    14
 74
     0
 42
0.00000001
 43
0.00000001
 12
1.0
 22
0.0
 32
0.0
 13
1.0
 23
0.0
 33
0.0
 40
0.0
 40
0.0
 40
0.0
 40
0.0
 40
0.0300407043045772
 40
0.0822126119686317
 40
0.1578646057893514
 40
0.272214165815082
 40
0.4439530631959291
 40
0.5097575466560721
 40
0.6911813191019494
 40
0.8010591867404091
 40
0.8852262330595967
 40
0.9516284292215059
 40
1.0
 40
1.0
 40
1.0
 40
1.0
 10
6.843877352204491
 20
4.232903530928668
 30
0.0
 10
6.844071711586952
 20
4.232950406437457
 30
0.0
 10
6.844603616309644
 20
4.23307869098018
 30
0.0
 10
6.845629242760991
 20
4.233118256044551
 30
0.0
 10
6.847019902327649
 20
4.232844807226704
 30
0.0
 10
6.84861880611017
 20
4.231946822128647
 30
0.0
 10
6.84959724433199
 20
4.230684543487033
 30
0.0
 10
6.850240347686938
 20
4.228973293493296
 30
0.0
 10
6.850319299881659
 20
4.227325487657305
 30
0.0
 10
6.849619247657534
 20
4.225527599631708
 30
0.0
 10
6.848653000159833
 20
4.224366209942671
 30
0.0
 10
6.847602228434688
 20
4.223627061802098
 30
0.0
 10
6.846877950421523
 20
4.223378417624104
 30
0.0
 10
6.846572702400909
 20
4.22327362617415
 30
0.0
  0
LINE
  5
111
330
1F
100
AcDbEntity
  8
0
  6
Continuous
 62
     7
370
    15
100
AcDbLine
 10
6.8246175427
 20
4.2275127132
 30
0.0
 11
6.8438773522
 21
4.2329035309
 31
0.0
  0
SPLINE
  5
112
330
1F
100
AcDbEntity
  8
0
  6
Continuous
 62
     7
370
    15
100
AcDbSpline
210
0.0
220
0.0
230
1.0
 70
     8
 71
     3
 72
    18
 73
    14
 74
     0
 42
0.00000001
 43
0.00000001
 12
1.0
 22
0.0
 32
0.0
 13
1.0
 23
0.0
 33
0.0
 40
0.0
 40
0.0
 40
0.0
 40
0.0
 40
0.0186200666382182
 40
0.0783730010949919
 40
0.1406263017080706
 40
0.2366592239816918
 40
0.3736261276054561
 40
0.5581670738722825
 40
0.7450415768979375
 40
0.8408246374735879
 40
0.9158926097279905
 40
0.9727186082961039
 40
1.0
 40
1.0
 40
1.0
 40
1.0
 10
6.827312892891872
 20
4.217882808449336
 30
0.0
 10
6.827193038958919
 20
4.217852211057229
 30
0.0
 10
6.826688566413193
 20
4.217723424759537
 30
0.0
 10
6.825755342183029
 20
4.217657678641055
 30
0.0
 10
6.82442668379977
 20
4.217869387503342
 30
0.0
 10
6.822939218478449
 20
4.218577604267325
 30
0.0
 10
6.821529388353938
 20
4.220055322122377
 30
0.0
 10
6.820794974272803
 20
4.222207759444249
 30
0.0
 10
6.821084000430352
 20
4.224320585440291
 30
0.0
 10
6.822027380954159
 20
4.225885514087578
 30
0.0
 10
6.823002854269306
 20
4.226785999700871
 30
0.0
 10
6.823911087261587
 20
4.227289548247729
 30
0.0
 10
6.824444517305727
 20
4.227458055540177
 30
0.0
 10
6.824617542695455
 20
4.227512713203855
 30
0.0
  0
LINE
  5
113
330
1F
100
AcDbEntity
  8
0
  6
Continuous
 62
     7
370
    15
100
AcDbLine
 10
6.8465727024
 20
4.2232736262
 30
0.0
 11
6.8273128929
 21
4.2178828084
 31
0.0
  0
SPLINE
  5
114
330
1F
100
AcDbEntity
  8
0
  6
Continuous
 62
     7
370
    15
100
AcDbSpline
210
0.0
220
0.0
230
1.0
 70
     8
 71
     3
 72
    18
 73
    14
 74
     0
 42
0.00000001
 43
0.00000001
 12
1.0
 22
0.0
 32
0.0
 13
1.0
 23
0.0
 33
0.0
 40
0.0
 40
0.0
 40
0.0
 40
0.0
 40
0.0081385224994216
 40
0.1133687683037173
 40
0.2186362672223417
 40
0.3245500950741939
 40
0.4316601959271552
 40
0.4992763805323496
 40
0.6095205769581256
 40
0.719773073375152
 40
0.8294410627081453
 40
0.9369120067815737
 40
1.0
 40
1.0
 40
1.0
 40
1.0
 10
6.877569698987626
 20
4.112529838829165
 30
0.0
 10
6.877611022561821
 20
4.112541034718485
 30
0.0
 10
6.878186655633883
 20
4.112696992287256
 30
0.0
 10
6.879359098385434
 20
4.112788681216389
 30
0.0
 10
6.880994439944634
 20
4.112365308815363
 30
0.0
 10
6.88240463028119
 20
4.111428684762368
 30
0.0
 10
6.883302774521253
 20
4.110244834599778
 30
0.0
 10
6.88384953863564
 20
4.108866830746397
 30
0.0
 10
6.884003983224094
 20
4.107357050422609
 30
0.0
 10
6.883587626314958
 20
4.105665143837137
 30
0.0
 10
6.882626104885323
 20
4.10422244037515
 30
0.0
 10
6.881430387781717
 20
4.103302501571166
 30
0.0
 10
6.880579707174143
 20
4.103008633022392
 30
0.0
 10
6.880265049184044
 20
4.102899934074646
 30
0.0
  0
LINE
  5
115
330
1F
100
AcDbEntity
  8
0
  6
Continuous
 62
     7
370
    15
100
AcDbLine
 10
6.8583098895
 20
4.1071390211
 30
0.0
 11
6.877569699
 21
4.1125298388
 31
0.0
  0
SPLINE
  5
116
330
1F
100
AcDbEntity
  8
0
  6
Continuous
 62
     7
370
    15
100
AcDbSpline
210
0.0
220
0.0
230
1.0
 70
     8
 71
     3
 72
    17
 73
    13
 74
     0
 42
0.00000001
 43
0.00000001
 12
1.0
 22
0.0
 32
0.0
 13
1.0
 23
0.0
 33
0.0
 40
0.0
 40
0.0
 40
0.0
 40
0.0
 40
0.0422381612237263
 40
0.1459659143088846
 40
0.2504320835896832
 40
0.3571117166151578
 40
0.4661670039388954
 40
0.5764875304444297
 40
0.6865020598917474
 40
0.7951358334807599
 40
0.9021776446591023
 40
1.0
 40
1.0
 40
1.0
 40
1.0
 10
6.861005239675007
 20
4.097509175015822
 30
0.0
 10
6.860788790806131
 20
4.097457960150775
 30
0.0
 10
6.860040790511344
 20
4.097280972697106
 30
0.0
 10
6.858695593075693
 20
4.097328278690918
 30
0.0
 10
6.85712928717223
 20
4.097903495233241
 30
0.0
 10
6.855820132355112
 20
4.098972729463157
 30
0.0
 10
6.854922883037546
 20
4.100433903303326
 30
0.0
 10
6.854561954057656
 20
4.102130928783708
 30
0.0
 10
6.854793955448882
 20
4.103859786650648
 30
0.0
 10
6.855593452106081
 20
4.105392267853504
 30
0.0
 10
6.856809664542263
 20
4.106568525427321
 30
0.0
 10
6.8578250461631
 20
4.106954648075463
 30
0.0
 10
6.858309889478589
 20
4.107139021104351
 30
0.0
  0
LINE
  5
117
330
1F
100
AcDbEntity
  8
0
  6
Continuous
 62
     7
370
    15
100
AcDbLine
 10
6.8802650492
 20
4.1028999341
 30
0.0
 11
6.8610052397
 21
4.097509175
 31
0.0
  0
SPLINE
  5
118
330
1F
100
AcDbEntity
  8
0
  6
Continuous
 62
     7
370
    15
100
AcDbSpline
210
0.0
220
0.0
230
1.0
 70
     8
 71
     3
 72
    18
 73
    14
 74
     0
 42
0.00000001
 43
0.00000001
 12
1.0
 22
0.0
 32
0.0
 13
1.0
 23
0.0
 33
0.0
 40
0.0
 40
0.0
 40
0.0
 40
0.0
 40
0.025493148731525
 40
0.1228534180039468
 40
0.2209647051623268
 40
0.3229328426621904
 40
0.4309989785900626
 40
0.4984174803307522
 40
0.6178788052356319
 40
0.7374566211707294
 40
0.8529079717565933
 40
0.9587453412131369
 40
1.0
 40
1.0
 40
1.0
 40
1.0
 10
6.88430807447867
 20
4.088455076942869
 30
0.0
 10
6.884442143575166
 20
4.088488887514826
 30
0.0
 10
6.885088232723527
 20
4.088651823226432
 30
0.0
 10
6.886309383995889
 20
4.088680303551567
 30
0.0
 10
6.887852820582796
 20
4.088226210048679
 30
0.0
 10
6.889195783672217
 20
4.087296904750864
 30
0.0
 10
6.890054747372836
 20
4.086141329763156
 30
0.0
 10
6.890600522064518
 20
4.084752229914818
 30
0.0
 10
6.890746734570465
 20
4.08318950991502
 30
0.0
 10
6.890258818928587
 20
4.081414911719793
 30
0.0
 10
6.889180420412122
 20
4.079949882008116
 30
0.0
 10
6.8879760009294
 20
4.079140844658632
 30
0.0
 10
6.887216453649203
 20
4.078894315746196
 30
0.0
 10
6.887003424675089
 20
4.07882517218835
 30
0.0
  0
LINE
  5
119
330
1F
100
AcDbEntity
  8
0
  6
Continuous
 62
     7
370
    15
100
AcDbLine
 10
6.865048265
 20
4.0830643179
 30
0.0
 11
6.8843080745
 21
4.0884550769
 31
0.0
  0
SPLINE
  5
11A
330
1F
100
AcDbEntity
  8
0
  6
Continuous
 62
     7
370
    15
100
AcDbSpline
210
0.0
220
0.0
230
1.0
 70
     8
 71
     3
 72
    17
 73
    13
 74
     0
 42
0.00000001
 43
0.00000001
 12
1.0
 22
0.0
 32
0.0
 13
1.0
 23
0.0
 33
0.0
 40
0.0
 40
0.0
 40
0.0
 40
0.0
 40
0.0562810840249345
 40
0.1504605310502658
 40
0.247812260174861
 40
0.3526052132920342
 40
0.466037850325919
 40
0.5853989710769893
 40
0.7048424562429304
 40
0.8187597615209088
 40
0.9250419341837927
 40
1.0
 40
1.0
 40
1.0
 40
1.0
 10
6.867743615166051
 20
4.073434413129525
 30
0.0
 10
6.867444871177897
 20
4.073368195088268
 30
0.0
 10
6.866646216001211
 20
4.073191169328632
 30
0.0
 10
6.865289969111475
 20
4.073296120371246
 30
0.0
 10
6.863822903897411
 20
4.073864646422631
 30
0.0
 10
6.862555536880146
 20
4.0749047772761
 30
0.0
 10
6.861649517809655
 20
4.076374048358274
 30
0.0
 10
6.861285410530286
 20
4.078142551926712
 30
0.0
 10
6.861579410745613
 20
4.079964737371673
 30
0.0
 10
6.862494262679499
 20
4.081533822193093
 30
0.0
 10
6.863734739214777
 20
4.082591543303973
 30
0.0
 10
6.86466395582967
 20
4.082925994298388
 30
0.0
 10
6.865048264969634
 20
4.083064317884044
 30
0.0
  0
LINE
  5
11B
330
1F
100
AcDbEntity
  8
0
  6
Continuous
 62
     7
370
    15
100
AcDbLine
 10
6.8870034247
 20
4.0788251722
 30
0.0
 11
6.8677436152
 21
4.0734344131
 31
0.0
  0
SPLINE
  5
11C
330
1F
100
AcDbEntity
  8
0
  6
Continuous
 62
     7
370
    15
100
AcDbSpline
210
0.0
220
0.0
230
1.0
 70
     8
 71
     3
 72
    18
 73
    14
 74
     0
 42
0.00000001
 43
0.00000001
 12
1.0
 22
0.0
 32
0.0
 13
1.0
 23
0.0
 33
0.0
 40
0.0
 40
0.0
 40
0.0
 40
0.0
 40
0.0163567951557794
 40
0.0995181185019011
 40
0.1837154764799555
 40
0.2758362135569057
 40
0.3813448452294608
 40
0.4965519336966904
 40
0.6430141041351854
 40
0.7839821003145825
 40
0.8790432380945993
 40
0.9746679071391131
 40
1.0
 40
1.0
 40
1.0
 40
1.0
 10
6.891046684633671
 20
4.064380373722561
 30
0.0
 10
6.891138126553392
 20
4.0644042206478
 30
0.0
 10
6.891694478070675
 20
4.064549310264026
 30
0.0
 10
6.892769393633718
 20
4.064618870558814
 30
0.0
 10
6.89419426650057
 20
4.064305031283693
 30
0.0
 10
6.895513656616814
 20
4.063573059891725
 30
0.0
 10
6.896606339627908
 20
4.062420541601019
 30
0.0
 10
6.897361575815878
 20
4.060796866973829
 30
0.0
 10
6.897490465705636
 20
4.058841900136981
 30
0.0
 10
6.896823821892315
 20
4.05700417558909
 30
0.0
 10
6.895635862760797
 20
4.05564960901803
 30
0.0
 10
6.894549776711035
 20
4.055000342422026
 30
0.0
 10
6.893881907360832
 20
4.05479373827622
 30
0.0
 10
6.89374203483009
 20
4.054750468968042
 30
0.0
  0
LINE
  5
11D
330
1F
100
AcDbEntity
  8
0
  6
Continuous
 62
     7
370
    15
100
AcDbLine
 10
6.8717868751
 20
4.058989556
 30
0.0
 11
6.8910466846
 21
4.0643803737
 31
0.0
  0
SPLINE
  5
11E
330
1F
100
AcDbEntity
  8
0
  6
Continuous
 62
     7
370
    15
100
AcDbSpline
210
0.0
220
0.0
230
1.0
 70
     8
 71
     3
 72
    17
 73
    13
 74
     0
 42
0.00000001
 43
0.00000001
 12
1.0
 22
0.0
 32
0.0
 13
1.0
 23
0.0
 33
0.0
 40
0.0
 40
0.0
 40
0.0
 40
0.0
 40
0.0573588847022345
 40
0.1352573294270978
 40
0.2199376685357889
 40
0.3193204024663575
 40
0.4382417971818915
 40
0.5747745317529643
 40
0.7160111211446737
 40
0.8202594173398122
 40
0.9250567413870968
 40
1.0
 40
1.0
 40
1.0
 40
1.0
 10
6.874482225321053
 20
4.049359651243229
 30
0.0
 10
6.874157027983446
 20
4.049289100496718
 30
0.0
 10
6.873390183864186
 20
4.049122735588965
 30
0.0
 10
6.872133483326256
 20
4.049217563286762
 30
0.0
 10
6.87079942683899
 20
4.049674246079972
 30
0.0
 10
6.869542731980546
 20
4.050572205003723
 30
0.0
 10
6.868521632874392
 20
4.051971812493599
 30
0.0
 10
6.868009940022747
 20
4.053827023058224
 30
0.0
 10
6.868260175940561
 20
4.055751104477442
 30
0.0
 10
6.869176956310145
 20
4.057381559834185
 30
0.0
 10
6.870395894338984
 20
4.058481001263038
 30
0.0
 10
6.871377565165181
 20
4.058839908698525
 30
0.0
 10
6.871786875124634
 20
4.058989555997748
 30
0.0
  0
LINE
  5
11F
330
1F
100
AcDbEntity
  8
0
  6
Continuous
 62
     7
370
    15
100
AcDbLine
 10
6.8937420348
 20
4.054750469
 30
0.0
 11
6.8744822253
 21
4.0493596512
 31
0.0
  0
SPLINE
  5
120
330
1F
100
AcDbEntity
  8
0
  6
Continuous
 62
     7
370
    15
100
AcDbSpline
210
0.0
220
0.0
230
1.0
 70
     8
 71
     3
 72
    18
 73
    14
 74
     0
 42
0.00000001
 43
0.00000001
 12
1.0
 22
0.0
 32
0.0
 13
1.0
 23
0.0
 33
0.0
 40
0.0
 40
0.0
 40
0.0
 40
0.0
 40
0.0279460787263205
 40
0.0873323144642112
 40
0.1507962097666513
 40
0.2509174136706238
 40
0.3939875017553468
 40
0.4906533341694323
 40
0.6838939719330741
 40
0.8048980571609228
 40
0.8885851934048336
 40
0.950467801453858
 40
1.0
 40
1.0
 40
1.0
 40
1.0
 10
6.897785060124716
 20
4.040305611836264
 30
0.0
 10
6.897965662071888
 20
4.040349654282038
 30
0.0
 10
6.89853004844601
 20
4.040487288214932
 30
0.0
 10
6.899524916747787
 20
4.040518979629841
 30
0.0
 10
6.900858152912236
 20
4.040258549915573
 30
0.0
 10
6.902347874186805
 20
4.039472478056004
 30
0.0
 10
6.903420545438557
 20
4.038230143956244
 30
0.0
 10
6.904165624963704
 20
4.036454379140531
 30
0.0
 10
6.904214513310171
 20
4.034615267981684
 30
0.0
 10
6.903471962317114
 20
4.032836726632733
 30
0.0
 10
6.902504483842619
 20
4.031727707623696
 30
0.0
 10
6.901496464196548
 20
4.031026709282814
 30
0.0
 10
6.900793105684719
 20
4.030783729661589
 30
0.0
 10
6.900480410321134
 20
4.030675707081746
 30
0.0
  0
LINE
  5
121
330
1F
100
AcDbEntity
  8
0
  6
Continuous
 62
     7
370
    15
100
AcDbLine
 10
6.8785252506
 20
4.0349148528
 30
0.0
 11
6.8977850601
 21
4.0403056118
 31
0.0
  0
SPLINE
  5
122
330
1F
100
AcDbEntity
  8
0
  6
Continuous
 62
     7
370
    15
100
AcDbSpline
210
0.0
220
0.0
230
1.0
 70
     8
 71
     3
 72
    18
 73
    14
 74
     0
 42
0.00000001
 43
0.00000001
 12
1.0
 22
0.0
 32
0.0
 13
1.0
 23
0.0
 33
0.0
 40
0.0
 40
0.0
 40
0.0
 40
0.0
 40
0.0130143248438914
 40
0.0660874447252896
 40
0.1353032815684222
 40
0.2371242132160877
 40
0.3939667475625277
 40
0.557544831395802
 40
0.71332850637525
 40
0.8187389594139189
 40
0.8983215939629308
 40
0.9628698336870252
 40
1.0
 40
1.0
 40
1.0
 40
1.0
 10
6.881220600812097
 20
4.025284948022922
 30
0.0
 10
6.881136979284914
 20
4.02526297480892
 30
0.0
 10
6.880712344651788
 20
4.025151393641006
 30
0.0
 10
6.879818661982902
 20
4.025055024367153
 30
0.0
 10
6.878472832035667
 20
4.025224307277118
 30
0.0
 10
6.876896616036435
 20
4.025931023652708
 30
0.0
 10
6.875534530476546
 20
4.027331065514069
 30
0.0
 10
6.874787435724005
 20
4.029295861072728
 30
0.0
 10
6.874885387440685
 20
4.031281986393487
 30
0.0
 10
6.875638268644034
 20
4.03290910336172
 30
0.0
 10
6.87664435111686
 20
4.033993406493104
 30
0.0
 10
6.877647137610796
 20
4.034626166571081
 30
0.0
 10
6.878290362515032
 20
4.034837631560674
 30
0.0
 10
6.878525250615679
 20
4.034914852777439
 30
0.0
  0
LINE
  5
123
330
1F
100
AcDbEntity
  8
0
  6
Continuous
 62
     7
370
    15
100
AcDbLine
 10
6.9004804103
 20
4.0306757071
 30
0.0
 11
6.8812206008
 21
4.025284948
 31
0.0
  0
LWPOLYLINE
  5
124
330
1F
100
AcDbEntity
  8
0
  6
Continuous
 62
     7
370
    15
100
AcDbPolyline
 90
       32
 70
   128
 43
0.0
 10
6.8507750645
 20
4.2639103247
 10
6.8508818366
 20
4.2635282918
 10
6.8513558578
 20
4.2618351914
 10
6.852203464
 20
4.2588063837
 10
6.8534162073
 20
4.2544740764
 10
6.8549807119
 20
4.2488840877
 10
6.856880786
 20
4.2420957287
 10
6.8590962484
 20
4.2341809828
 10
6.8616033981
 20
4.2252236836
 10
6.8643757181
 20
4.2153188701
 10
6.8673838753
 20
4.2045714369
 10
6.8705959555
 20
4.1930953721
 10
6.8739779325
 20
4.181012349
 10
6.8774941372
 20
4.1684503768
 10
6.8811070235
 20
4.1555426273
 10
6.884778341
 20
4.1424259681
 10
6.8884691357
 20
4.1292394378
 10
6.8921404533
 20
4.1161227787
 10
6.8957533396
 20
4.1032150291
 10
6.8992693096
 20
4.0906530569
 10
6.9026515212
 20
4.0785699751
 10
6.9058636015
 20
4.067093969
 10
6.9088717587
 20
4.0563465359
 10
6.9116440787
 20
4.0464416636
 10
6.9141512284
 20
4.0374844231
 10
6.9163664561
 20
4.0295696772
 10
6.9182665302
 20
4.0227813183
 10
6.9198312694
 20
4.0171913295
 10
6.9210437781
 20
4.0128590222
 10
6.921891619
 20
4.0098302146
 10
6.9223654055
 20
4.0081371141
 10
6.9224724123
 20
4.0077550812
  0
LWPOLYLINE
  5
125
330
1F
100
AcDbEntity
  8
0
  6
Continuous
 62
     7
370
    15
100
AcDbPolyline
 90
       32
 70
   128
 43
0.0
 10
6.8026255407
 20
4.2504333391
 10
6.8027325475
 20
4.2500513648
 10
6.803206334
 20
4.2483582057
 10
6.8040541749
 20
4.2453294567
 10
6.8052666836
 20
4.2409970908
 10
6.8068314228
 20
4.235407102
 10
6.8087314969
 20
4.2286188018
 10
6.8109467246
 20
4.2207040559
 10
6.8134538743
 20
4.2117467567
 10
6.8162261943
 20
4.2018419431
 10
6.8192343515
 20
4.1910945099
 10
6.8224464318
 20
4.1796184451
 10
6.8258284087
 20
4.1675353634
 10
6.8293446134
 20
4.1549733912
 10
6.8329574997
 20
4.1420657003
 10
6.8366288173
 20
4.1289490412
 10
6.840319612
 20
4.1157624522
 10
6.8439909296
 20
4.102645793
 10
6.8476038158
 20
4.0897381021
 10
6.8511200205
 20
4.0771761299
 10
6.8545019975
 20
4.0650930482
 10
6.8577140777
 20
4.0536169834
 10
6.8607222349
 20
4.0428695502
 10
6.8634945549
 20
4.0329647366
 10
6.8660017046
 20
4.0240074374
 10
6.868217167
 20
4.0160926915
 10
6.8701170064
 20
4.0093043913
 10
6.8716817457
 20
4.0037144025
 10
6.8728942543
 20
3.9993820366
 10
6.8737420952
 20
3.9963532876
 10
6.8742158817
 20
3.9946601285
 10
6.8743228885
 20
3.9942781542
  0
SPLINE
  5
126
330
1F
100
AcDbEntity
  8
0
  6
Continuous
 62
     7
370
    15
100
AcDbSpline
210
0.0
220
0.0
230
1.0
 70
     8
 71
     3
 72
    17
 73
    13
 74
     0
 42
0.00000001
 43
0.00000001
 12
1.0
 22
0.0
 32
0.0
 13
1.0
 23
0.0
 33
0.0
 40
0.0
 40
0.0
 40
0.0
 40
0.0
 40
0.1073279104601744
 40
0.2146407271623214
 40
0.3220086835818314
 40
0.4294088203982777
 40
0.5367552477557177
 40
0.6440467251111981
 40
0.7513675529336155
 40
0.858750955616258
 40
0.9661473109666944
 40
1.0
 40
1.0
 40
1.0
 40
1.0
 10
6.854266864183963
 20
4.121583878236129
 30
0.0
 10
6.853710713542586
 20
4.121485582062881
 30
0.0
 10
6.852598490472511
 20
4.121289003539993
 30
0.0
 10
6.850925632459416
 20
4.121715184568504
 30
0.0
 10
6.849487904322666
 20
4.122630035860133
 30
0.0
 10
6.848433784413553
 20
4.123980523439952
 30
0.0
 10
6.847886280439187
 20
4.125600743079723
 30
0.0
 10
6.847905619106566
 20
4.127310702760871
 30
0.0
 10
6.848489709342607
 20
4.128919151009049
 30
0.0
 10
6.849573234093647
 20
4.130238864618834
 30
0.0
 10
6.850700515327761
 20
4.130938885497524
 30
0.0
 10
6.851402933173058
 20
4.131160636632989
 30
0.0
 10
6.851571279323588
 20
4.131213782990647
 30
0.0
  0
LINE
  5
127
330
1F
100
AcDbEntity
  8
0
  6
Continuous
 62
     7
370
    15
100
AcDbLine
 10
4.926378682
 20
3.1496576047
 30
0.0
 11
4.926378682
 21
3.4496576084
 31
0.0
  0
LINE
  5
128
330
1F
100
AcDbEntity
  8
0
  6
Continuous
 62
     7
370
    15
100
AcDbLine
 10
2.5263786523
 20
3.1496576047
 30
0.0
 11
2.5263786523
 21
3.4496576084
 31
0.0
  0
LINE
  5
129
330
1F
100
AcDbEntity
  8
0
  6
Continuous
 62
     7
370
    15
100
AcDbLine
 10
4.926378682
 20
3.4496576084
 30
0.0
 11
2.5263786523
 21
3.4496576084
 31
0.0
  0
LINE
  5
12A
330
1F
100
AcDbEntity
  8
0
  6
Continuous
 62
     7
370
    15
100
AcDbLine
 10
4.797398572
 20
3.6546576055
 30
0.0
 11
4.797398572
 21
3.614657609
 31
0.0
  0
ARC
  5
12B
330
1F
100
AcDbEntity
  8
0
  6
Continuous
 62
     7
370
    15
100
AcDbCircle
 10
4.3961989359
 20
3.6346576084
 30
0.0
 40
0.02
100
AcDbArc
 50
90.0
 51
270.0
  0
LINE
  5
12C
330
1F
100
AcDbEntity
  8
0
  6
Continuous
 62
     7
370
    15
100
AcDbLine
 10
4.6263786489
 20
5.2996576557
 30
0.0
 11
4.6263786489
 21
3.9496576243
 31
0.0
  0
LINE
  5
12D
330
1F
100
AcDbEntity
  8
0
  6
Continuous
 62
     7
370
    15
100
AcDbLine
 10
4.7263786991
 20
5.2996576557
 30
0.0
 11
4.6263786489
 21
5.2996576557
 31
0.0
  0
LINE
  5
12E
330
1F
100
AcDbEntity
  8
0
  6
Continuous
 62
     7
370
    15
100
AcDbLine
 10
4.7263786991
 20
5.2996576557
 30
0.0
 11
4.7263786991
 21
3.9496576243
 31
0.0
  0
LINE
  5
12F
330
1F
100
AcDbEntity
  8
0
  6
Continuous
 62
     7
370
    15
100
AcDbLine
 10
4.7263786991
 20
3.9496576243
 30
0.0
 11
4.6263786489
 21
3.9496576243
 31
0.0
  0
LINE
  5
130
330
1F
100
AcDbEntity
  8
0
  6
Continuous
 62
     7
370
    15
100
AcDbLine
 10
2.7263786352
 20
3.5496576072
 30
0.0
 11
2.8263786854
 21
3.5496576072
 31
0.0
  0
LINE
  5
131
330
1F
100
AcDbEntity
  8
0
  6
Continuous
 62
     7
370
    15
100
AcDbLine
 10
2.7263786352
 20
5.2996576557
 30
0.0
 11
2.7263786352
 21
3.5496576072
 31
0.0
  0
LINE
  5
132
330
1F
100
AcDbEntity
  8
0
  6
Continuous
 62
     7
370
    15
100
AcDbLine
 10
2.8263786854
 20
5.2996576557
 30
0.0
 11
2.7263786352
 21
5.2996576557
 31
0.0
  0
LINE
  5
133
330
1F
100
AcDbEntity
  8
0
  6
Continuous
 62
     7
370
    15
100
AcDbLine
 10
2.8263786854
 20
5.2996576557
 30
0.0
 11
2.8263786854
 21
3.5496576072
 31
0.0
  0
LINE
  5
134
330
1F
100
AcDbEntity
  8
0
  6
Continuous
 62
     7
370
    15
100
AcDbLine
 10
2.8263786854
 20
5.3496576221
 30
0.0
 11
4.6263786489
 21
5.3496576221
 31
0.0
  0
LINE
  5
135
330
1F
100
AcDbEntity
  8
0
  6
Continuous
 62
     7
370
    15
100
AcDbLine
 10
4.6263786489
 20
5.3496576221
 30
0.0
 11
4.6263786489
 21
5.2996576557
 31
0.0
  0
LINE
  5
136
330
1F
100
AcDbEntity
  8
0
  6
Continuous
 62
     7
370
    15
100
AcDbLine
 10
4.6263786489
 20
5.2996576557
 30
0.0
 11
2.8263786854
 21
5.2996576557
 31
0.0
  0
LINE
  5
137
330
1F
100
AcDbEntity
  8
0
  6
Continuous
 62
     7
370
    15
100
AcDbLine
 10
2.8263786854
 20
5.3496576221
 30
0.0
 11
2.8263786854
 21
5.2996576557
 31
0.0
  0
LINE
  5
138
330
1F
100
AcDbEntity
  8
0
  6
Continuous
 62
     7
370
    15
100
AcDbLine
 10
4.6263786489
 20
5.3496576221
 30
0.0
 11
4.676378674
 21
5.3496576221
 31
0.0
  0
ARC
  5
139
330
1F
100
AcDbEntity
  8
0
  6
Continuous
 62
     7
370
    15
100
AcDbCircle
 10
4.6763786671
 20
5.2996576084
 30
0.0
 40
0.0499999999999998
100
AcDbArc
 50
0.0
 51
90.0
  0
LINE
  5
13A
330
1F
100
AcDbEntity
  8
0
  6
Continuous
 62
     7
370
    15
100
AcDbLine
 10
2.8263786854
 20
3.5496576072
 30
0.0
 11
4.2644290329
 21
3.5496576072
 31
0.0
  0
LINE
  5
13B
330
1F
100
AcDbEntity
  8
0
  6
Continuous
 62
     7
370
    15
100
AcDbLine
 10
4.2644290329
 20
3.9496576243
 30
0.0
 11
4.6263786489
 21
3.9496576243
 31
0.0
  0
LINE
  5
13C
330
1F
100
AcDbEntity
  8
0
  6
Continuous
 62
     7
370
    15
100
AcDbLine
 10
4.2644290329
 20
3.9496576243
 30
0.0
 11
4.2644290329
 21
3.5496576072
 31
0.0
  0
LINE
  5
13D
330
1F
100
AcDbEntity
  8
0
  6
Continuous
 62
     7
370
    15
100
AcDbLine
 10
4.4763786911
 20
4.1996576323
 30
0.0
 11
4.4763786911
 21
5.1996576056
 31
0.0
  0
LINE
  5
13E
330
1F
100
AcDbEntity
  8
0
  6
Continuous
 62
     7
370
    15
100
AcDbLine
 10
4.4763786911
 20
5.1996576056
 30
0.0
 11
2.9763786432
 21
5.1996576056
 31
0.0
  0
LINE
  5
13F
330
1F
100
AcDbEntity
  8
0
  6
Continuous
 62
     7
370
    15
100
AcDbLine
 10
2.9763786432
 20
5.1996576056
 30
0.0
 11
2.9763786432
 21
4.1996576323
 31
0.0
  0
LINE
  5
140
330
1F
100
AcDbEntity
  8
0
  6
Continuous
 62
     7
370
    15
100
AcDbLine
 10
2.9763786432
 20
4.1996576323
 30
0.0
 11
4.4763786911
 21
4.1996576323
 31
0.0
  0
LINE
  5
141
330
1F
100
AcDbEntity
  8
0
  6
Continuous
 62
     7
370
    15
100
AcDbLine
 10
2.7763786603
 20
5.3496576221
 30
0.0
 11
2.8263786854
 21
5.3496576221
 31
0.0
  0
ARC
  5
142
330
1F
100
AcDbEntity
  8
0
  6
Continuous
 62
     7
370
    15
100
AcDbCircle
 10
2.7763786671
 20
5.2996576084
 30
0.0
 40
0.0500000000000003
100
AcDbArc
 50
90.0
 51
180.0
  0
LINE
  5
143
330
1F
100
AcDbEntity
  8
0
  6
Continuous
 62
     7
370
    15
100
AcDbLine
 10
2.8263786854
 20
3.4496576084
 30
0.0
 11
2.8263786854
 21
3.5496576072
 31
0.0
  0
LINE
  5
144
330
1F
100
AcDbEntity
  8
0
  6
Continuous
 62
     7
370
    15
100
AcDbLine
 10
4.2644290329
 20
3.5496576072
 30
0.0
 11
4.2644290329
 21
3.4496576084
 31
0.0
  0
LINE
  5
145
330
1F
100
AcDbEntity
  8
0
  6
Continuous
 62
     7
370
    15
100
AcDbLine
 10
2.7763786603
 20
3.4496576084
 30
0.0
 11
2.7763786603
 21
3.5496576072
 31
0.0
  0
LINE
  5
146
330
1F
100
AcDbEntity
  8
0
  6
Continuous
 62
     7
370
    15
100
AcDbLine
 10
4.797398572
 20
3.7396576129
 30
0.0
 11
4.797398572
 21
3.6996576164
 31
0.0
  0
ARC
  5
147
330
1F
100
AcDbEntity
  8
0
  6
Continuous
 62
     7
370
    15
100
AcDbCircle
 10
4.5640705845
 20
3.7196576084
 30
0.0
 40
0.0200000000000005
100
AcDbArc
 50
90.0
 51
270.0
  0
LINE
  5
148
330
1F
100
AcDbEntity
  8
0
  6
Continuous
 62
     7
370
    15
100
AcDbLine
 10
4.3517463175
 20
3.6996576164
 30
0.0
 11
4.4406515145
 21
3.6996576164
 31
0.0
  0
LINE
  5
149
330
1F
100
AcDbEntity
  8
0
  6
Continuous
 62
     7
370
    15
100
AcDbLine
 10
4.5196179889
 20
3.7996576078
 30
0.0
 11
4.6085231859
 21
3.7996576078
 31
0.0
  0
LINE
  5
14A
330
1F
100
AcDbEntity
  8
0
  6
Continuous
 62
     7
370
    15
100
AcDbLine
 10
4.3717463158
 20
3.7246575996
 30
0.0
 11
4.3717463158
 21
3.6996576164
 31
0.0
  0
LINE
  5
14B
330
1F
100
AcDbEntity
  8
0
  6
Continuous
 62
     7
370
    15
100
AcDbLine
 10
4.3961989453
 20
3.7246575996
 30
0.0
 11
4.3961989453
 21
3.6996576164
 31
0.0
  0
LINE
  5
14C
330
1F
100
AcDbEntity
  8
0
  6
Continuous
 62
     7
370
    15
100
AcDbLine
 10
4.3717463158
 20
3.7246575996
 30
0.0
 11
4.3961989453
 21
3.7246575996
 31
0.0
  0
LINE
  5
14D
330
1F
100
AcDbEntity
  8
0
  6
Continuous
 62
     7
370
    15
100
AcDbLine
 10
4.4206515162
 20
3.7246575996
 30
0.0
 11
4.4206515162
 21
3.6996576164
 31
0.0
  0
LINE
  5
14E
330
1F
100
AcDbEntity
  8
0
  6
Continuous
 62
     7
370
    15
100
AcDbLine
 10
4.3961989453
 20
3.7246575996
 30
0.0
 11
4.4206515162
 21
3.7246575996
 31
0.0
  0
LINE
  5
14F
330
1F
100
AcDbEntity
  8
0
  6
Continuous
 62
     7
370
    15
100
AcDbLine
 10
4.5640705581
 20
3.8246576204
 30
0.0
 11
4.5640705581
 21
3.7996576078
 31
0.0
  0
LINE
  5
150
330
1F
100
AcDbEntity
  8
0
  6
Continuous
 62
     7
370
    15
100
AcDbLine
 10
4.5640705581
 20
3.8246576204
 30
0.0
 11
4.5883391524
 21
3.8246576204
 31
0.0
  0
LINE
  5
151
330
1F
100
AcDbEntity
  8
0
  6
Continuous
 62
     7
370
    15
100
AcDbLine
 10
4.5883391524
 20
3.8246576204
 30
0.0
 11
4.5883391524
 21
3.7996576078
 31
0.0
  0
LINE
  5
152
330
1F
100
AcDbEntity
  8
0
  6
Continuous
 62
     7
370
    15
100
AcDbLine
 10
4.5398020224
 20
3.8246576204
 30
0.0
 11
4.5398020224
 21
3.7996576078
 31
0.0
  0
LINE
  5
153
330
1F
100
AcDbEntity
  8
0
  6
Continuous
 62
     7
370
    15
100
AcDbLine
 10
4.5398020224
 20
3.8246576204
 30
0.0
 11
4.5640705581
 21
3.8246576204
 31
0.0
  0
LINE
  5
154
330
1F
100
AcDbEntity
  8
0
  6
Continuous
 62
     7
370
    15
100
AcDbLine
 10
3.1263786597
 20
5.4996575213
 30
0.0
 11
4.3263786746
 21
5.4996575213
 31
0.0
  0
LINE
  5
155
330
1F
100
AcDbEntity
  8
0
  6
Continuous
 62
     7
370
    15
100
AcDbLine
 10
4.676378674
 20
3.4496576084
 30
0.0
 11
4.676378674
 21
3.5496576072
 31
0.0
  0
LINE
  5
156
330
1F
100
AcDbEntity
  8
0
  6
Continuous
 62
     7
370
    15
100
AcDbLine
 10
4.7263786991
 20
3.9496576243
 30
0.0
 11
4.7263786991
 21
3.7396576129
 31
0.0
  0
LINE
  5
157
330
1F
100
AcDbEntity
  8
0
  6
Continuous
 62
     7
370
    15
100
AcDbLine
 10
4.7263786991
 20
3.6996576164
 30
0.0
 11
4.7263786991
 21
3.6546576055
 31
0.0
  0
LINE
  5
158
330
1F
100
AcDbEntity
  8
0
  6
Continuous
 62
     7
370
    15
100
AcDbLine
 10
4.7263786991
 20
3.614657609
 30
0.0
 11
4.7263786991
 21
3.5496576072
 31
0.0
  0
LINE
  5
159
330
1F
100
AcDbEntity
  8
0
  6
Continuous
 62
     7
370
    15
100
AcDbLine
 10
4.7263786991
 20
3.5496576072
 30
0.0
 11
4.676378674
 21
3.5496576072
 31
0.0
  0
LWPOLYLINE
  5
15A
330
1F
100
AcDbEntity
  8
0
  6
Continuous
 62
     7
370
    15
100
AcDbPolyline
 90
       16
 70
   128
 43
0.0
 10
6.9547572446
 20
4.1479022622
 10
6.9523857307
 20
4.1563753323
 10
6.949218002
 20
4.1676927056
 10
6.9460502732
 20
4.1790100202
 10
6.9429287733
 20
4.190162366
 10
6.939899027
 20
4.2009870623
 10
6.9370051511
 20
4.2113262389
 10
6.9342891504
 20
4.2210291241
 10
6.9317911526
 20
4.2299542157
 10
6.9295470612
 20
4.2379714511
 10
6.9275899638
 20
4.2449638503
 10
6.9259482548
 20
4.2508294518
 10
6.9246456352
 20
4.2554827208
 10
6.9237015821
 20
4.2588558391
 10
6.9231294713
 20
4.2608995862
 10
6.9229379856
 20
4.2615841596
  0
LINE
  5
15B
330
1F
100
AcDbEntity
  8
0
  6
Continuous
 62
     7
370
    15
100
AcDbLine
 10
4.7596876049
 20
3.6720726337
 30
0.0
 11
4.7596876049
 21
3.6996576164
 31
0.0
  0
LINE
  5
15C
330
1F
100
AcDbEntity
  8
0
  6
Continuous
 62
     7
370
    15
100
AcDbLine
 10
4.7596876049
 20
3.7396576129
 30
0.0
 11
4.7596876049
 21
3.7767426139
 31
0.0
  0
LWPOLYLINE
  5
15D
330
1F
100
AcDbEntity
  8
0
  6
Continuous
 62
     7
370
    15
100
AcDbPolyline
 90
        5
 70
   128
 43
0.0
 10
6.9562417288
 20
4.1282591878
 10
6.9555072306
 20
4.1308830241
 10
6.9523857307
 20
4.14203537
 10
6.949218002
 20
4.1533527432
 10
6.9473568821
 20
4.1600018291
  0
LINE
  5
15E
330
1F
100
AcDbEntity
  8
0
  6
Continuous
 62
     7
370
    15
100
AcDbLine
 10
4.7596876049
 20
3.5674026682
 30
0.0
 11
4.7596876049
 21
3.614657609
 31
0.0
  0
LINE
  5
15F
330
1F
100
AcDbEntity
  8
0
  6
Continuous
 62
     7
370
    15
100
AcDbLine
 10
4.7596876049
 20
3.6546576055
 30
0.0
 11
4.7596876049
 21
3.6720726337
 31
0.0
  0
ARC
  5
160
330
1F
100
AcDbEntity
  8
0
  6
Continuous
 62
     7
370
    15
100
AcDbCircle
 10
6.821792338
 20
4.2717756075
 30
0.0
 40
0.0226377952755912
100
AcDbArc
 50
154.8317068982
 51
201.626431741
  0
ARC
  5
161
330
1F
100
AcDbEntity
  8
0
  6
Continuous
 62
     7
370
    15
100
AcDbCircle
 10
6.821792338
 20
4.2717756075
 30
0.0
 40
0.0226377952755914
100
AcDbArc
 50
9.6472450572
 51
56.4419655718
  0
SPLINE
  5
162
330
1F
100
AcDbEntity
  8
0
  6
Continuous
 62
     7
370
    15
100
AcDbSpline
210
0.0
220
0.0
230
1.0
 70
     8
 71
     3
 72
    12
 73
     8
 74
     0
 42
0.00000001
 43
0.00000001
 12
1.0
 22
0.0
 32
0.0
 13
1.0
 23
0.0
 33
0.0
 40
0.0
 40
0.0
 40
0.0
 40
0.0
 40
0.2130412148197019
 40
0.4260723411004148
 40
0.6395815194586867
 40
0.8542030871323949
 40
1.0
 40
1.0
 40
1.0
 40
1.0
 10
6.844109904184697
 20
4.275569310049947
 30
0.0
 10
6.844068175703956
 20
4.275557593462636
 30
0.0
 10
6.843984720718522
 20
4.27553416084285
 30
0.0
 10
6.843333152678638
 20
4.275351802720668
 30
0.0
 10
6.842373086057266
 20
4.275083167448189
 30
0.0
 10
6.841298920817728
 20
4.274782517193754
 30
0.0
 10
6.840583120619722
 20
4.274582124249513
 30
0.0
 10
6.840293564271382
 20
4.274501061057117
 30
0.0
  0
SPLINE
  5
163
330
1F
100
AcDbEntity
  8
0
  6
Continuous
 62
     7
370
    15
100
AcDbSpline
210
0.0
220
0.0
230
1.0
 70
     8
 71
     3
 72
    12
 73
     8
 74
     0
 42
0.00000001
 43
0.00000001
 12
1.0
 22
0.0
 32
0.0
 13
1.0
 23
0.0
 33
0.0
 40
0.0
 40
0.0
 40
0.0
 40
0.0
 40
0.2165663787567663
 40
0.4332069135490865
 40
0.6488534714715372
 40
0.863115299337888
 40
1.0
 40
1.0
 40
1.0
 40
1.0
 10
6.804564569015784
 20
4.264500621916377
 30
0.0
 10
6.804133170211882
 20
4.264379854662207
 30
0.0
 10
6.803270224885742
 20
4.26413827880109
 30
0.0
 10
6.802121313002658
 20
4.263816766204282
 30
0.0
 10
6.801259080748687
 20
4.263575408671719
 30
0.0
 10
6.800810509916259
 20
4.263449795396139
 30
0.0
 10
6.800765528997668
 20
4.263437259639402
 30
0.0
 10
6.800747994438512
 20
4.263432372923547
 30
0.0
  0
SPLINE
  5
164
330
1F
100
AcDbEntity
  8
0
  6
Continuous
 62
     7
370
    15
100
AcDbSpline
210
0.0
220
0.0
230
1.0
 70
     8
 71
     3
 72
    11
 73
     7
 74
     0
 42
0.00000001
 43
0.00000001
 12
1.0
 22
0.0
 32
0.0
 13
1.0
 23
0.0
 33
0.0
 40
0.0
 40
0.0
 40
0.0
 40
0.0
 40
0.1661019838655699
 40
0.4819397910854757
 40
0.7977476416998468
 40
1.0
 40
1.0
 40
1.0
 40
1.0
 10
6.802367410397548
 20
4.263885626354192
 30
0.0
 10
6.802301861637591
 20
4.263646411840571
 30
0.0
 10
6.802111673929142
 20
4.262952338295899
 30
0.0
 10
6.801446933730852
 20
4.261929102090471
 30
0.0
 10
6.800457955749561
 20
4.261112547100093
 30
0.0
 10
6.799724121961319
 20
4.260837696155852
 30
0.0
 10
6.799437630909277
 20
4.260730393470378
 30
0.0
  0
SPLINE
  5
165
330
1F
100
AcDbEntity
  8
0
  6
Continuous
 62
     7
370
    15
100
AcDbSpline
210
0.0
220
0.0
230
1.0
 70
     8
 71
     3
 72
    11
 73
     7
 74
     0
 42
0.00000001
 43
0.00000001
 12
1.0
 22
0.0
 32
0.0
 13
1.0
 23
0.0
 33
0.0
 40
0.0
 40
0.0
 40
0.0
 40
0.0
 40
0.3161568980951934
 40
0.632249148573907
 40
0.9483714384307769
 40
1.0
 40
1.0
 40
1.0
 40
1.0
 10
6.846632776373596
 20
4.273940214202735
 30
0.0
 10
6.846157895237984
 20
4.273866585192266
 30
0.0
 10
6.845208230070236
 20
4.273719342226955
 30
0.0
 10
6.843799211555481
 20
4.274104547398936
 30
0.0
 10
6.842928208542886
 20
4.274671455022188
 30
0.0
 10
6.842544374681811
 20
4.275061271585308
 30
0.0
 10
6.842490488225662
 20
4.275115997953314
 30
0.0
  0
ARC
  5
166
330
1F
100
AcDbEntity
  8
0
  6
Continuous
 62
     7
370
    15
100
AcDbCircle
 10
6.8005963508
 20
4.2568178697
 30
0.0
 40
0.0040804992654773
100
AcDbArc
 50
106.4970048417
 51
195.1948573911
  0
LINE
  5
167
330
1F
100
AcDbEntity
  8
0
  6
Continuous
 62
     7
370
    15
100
AcDbLine
 10
6.7966585057
 20
4.2557483604
 30
0.0
 11
6.7987474842
 21
4.2482846386
 31
0.0
  0
ARC
  5
168
330
1F
100
AcDbEntity
  8
0
  6
Continuous
 62
     7
370
    15
100
AcDbCircle
 10
6.802669912
 20
4.2494164143
 30
0.0
 40
0.0040824448847757
100
AcDbArc
 50
196.0949444913
 51
286.0844972633
  0
LINE
  5
169
330
1F
100
AcDbEntity
  8
0
  6
Continuous
 62
     7
370
    15
100
AcDbLine
 10
6.8039931623
 20
4.2455475182
 30
0.0
 11
6.8038009725
 21
4.2454937802
 31
0.0
  0
ARC
  5
16A
330
1F
100
AcDbEntity
  8
0
  6
Continuous
 62
     7
370
    15
100
AcDbCircle
 10
6.8497749857
 20
4.2625857057
 30
0.0
 40
0.0040537514479626
100
AcDbArc
 50
304.6419714365
 51
15.3839831784
  0
LINE
  5
16B
330
1F
100
AcDbEntity
  8
0
  6
Continuous
 62
     7
370
    15
100
AcDbLine
 10
6.8515942764
 20
4.2711247747
 30
0.0
 11
6.8536834896
 21
4.2636611116
 31
0.0
  0
ARC
  5
16C
330
1F
100
AcDbEntity
  8
0
  6
Continuous
 62
     7
370
    15
100
AcDbCircle
 10
6.8476735188
 20
4.2699948453
 30
0.0
 40
0.0040803284906762
100
AcDbArc
 50
16.0765374246
 51
104.777341492
  0
SPLINE
  5
16D
330
1F
100
AcDbEntity
  8
0
  6
Continuous
 62
     7
370
    15
100
AcDbSpline
210
0.0
220
0.0
230
1.0
 70
     8
 71
     3
 72
    12
 73
     8
 74
     0
 42
0.00000001
 43
0.00000001
 12
1.0
 22
0.0
 32
0.0
 13
1.0
 23
0.0
 33
0.0
 40
0.0
 40
0.0
 40
0.0
 40
0.0
 40
0.2154995978854458
 40
0.4310294832688771
 40
0.646563463249748
 40
0.8620418369773818
 40
1.0
 40
1.0
 40
1.0
 40
1.0
 10
6.846077796118109
 20
4.276118306374562
 30
0.0
 10
6.845858101624666
 20
4.276084291731181
 30
0.0
 10
6.84541868176071
 20
4.276016257663818
 30
0.0
 10
6.844764639727331
 20
4.276193878573069
 30
0.0
 10
6.844211824044283
 20
4.27656009575251
 30
0.0
 10
6.843851541803414
 20
4.277026653762784
 30
0.0
 10
6.843738961995033
 20
4.277365257874134
 30
0.0
 10
6.843695018310828
 20
4.277497426442849
 30
0.0
  0
ARC
  5
16E
330
1F
100
AcDbEntity
  8
0
  6
Continuous
 62
     7
370
    15
100
AcDbCircle
 10
6.847696212
 20
4.2699828315
 30
0.0
 40
0.0063453386222538
100
AcDbArc
 50
16.0794325232
 51
104.7768956876
  0
LINE
  5
16F
330
1F
100
AcDbEntity
  8
0
  6
Continuous
 62
     7
370
    15
100
AcDbLine
 10
6.8537933123
 20
4.2717402983
 30
0.0
 11
6.8558822909
 21
4.2642765765
 31
0.0
  0
ARC
  5
170
330
1F
100
AcDbEntity
  8
0
  6
Continuous
 62
     7
370
    15
100
AcDbCircle
 10
6.8497928078
 20
4.2626043897
 30
0.0
 40
0.00631490403074
100
AcDbArc
 50
297.4974930293
 51
15.3550708736
  0
LINE
  5
171
330
1F
100
AcDbEntity
  8
0
  6
Continuous
 62
     7
370
    15
100
AcDbLine
 10
6.80459883
 20
4.2433830365
 30
0.0
 11
6.8044068748
 21
4.2433292985
 31
0.0
  0
ARC
  5
172
330
1F
100
AcDbEntity
  8
0
  6
Continuous
 62
     7
370
    15
100
AcDbCircle
 10
6.8026478834
 20
4.2494286581
 30
0.0
 40
0.0063479318163482
100
AcDbArc
 50
196.0921893186
 51
286.0870070493
  0
LINE
  5
173
330
1F
100
AcDbEntity
  8
0
  6
Continuous
 62
     7
370
    15
100
AcDbLine
 10
6.7944594698
 20
4.2551328368
 30
0.0
 11
6.7965486829
 21
4.247669115
 31
0.0
  0
ARC
  5
174
330
1F
100
AcDbEntity
  8
0
  6
Continuous
 62
     7
370
    15
100
AcDbCircle
 10
6.8005831187
 20
4.2567958462
 30
0.0
 40
0.0063454453475727
100
AcDbArc
 50
106.4966007084
 51
195.1934715253
  0
SPLINE
  5
175
330
1F
100
AcDbEntity
  8
0
  6
Continuous
 62
     7
370
    15
100
AcDbSpline
210
0.0
220
0.0
230
1.0
 70
     8
 71
     3
 72
    12
 73
     8
 74
     0
 42
0.00000001
 43
0.00000001
 12
1.0
 22
0.0
 32
0.0
 13
1.0
 23
0.0
 33
0.0
 40
0.0
 40
0.0
 40
0.0
 40
0.0
 40
0.2155012309465742
 40
0.431019525494318
 40
0.6465226547271963
 40
0.8620465358251119
 40
1.0
 40
1.0
 40
1.0
 40
1.0
 10
6.800101729904216
 20
4.265295722064645
 30
0.0
 10
6.800143207306983
 20
4.26508079205407
 30
0.0
 10
6.800226165396738
 20
4.264650915014546
 30
0.0
 10
6.80006721512352
 20
4.263997610466222
 30
0.0
 10
6.799714104679952
 20
4.26343488896643
 30
0.0
 10
6.799253144019887
 20
4.26305702966985
 30
0.0
 10
6.798913737711445
 20
4.262929761084337
 30
0.0
 10
6.79878127582488
 20
4.262880091303551
 30
0.0
  0
SPLINE
  5
176
330
1F
100
AcDbEntity
  8
0
  6
Continuous
 62
     7
370
    15
100
AcDbSpline
210
0.0
220
0.0
230
1.0
 70
     8
 71
     3
 72
     9
 73
     5
 74
     0
 42
0.00000001
 43
0.00000001
 12
1.0
 22
0.0
 32
0.0
 13
1.0
 23
0.0
 33
0.0
 40
0.0
 40
0.0
 40
0.0
 40
0.0
 40
0.2071347126537688
 40
1.0
 40
1.0
 40
1.0
 40
1.0
 10
6.799623719426233
 20
4.267190574841812
 30
0.0
 10
6.799621265499339
 20
4.26719857729215
 30
0.0
 10
6.799609418489906
 20
4.267237211330045
 30
0.0
 10
6.799884013250473
 20
4.266154313870262
 30
0.0
 10
6.800101729904216
 20
4.265295722064645
 30
0.0
  0
LWPOLYLINE
  5
177
330
1F
100
AcDbEntity
  8
0
  6
Continuous
 62
     7
370
    15
100
AcDbPolyline
 90
        5
 70
   128
 43
0.0
 10
6.8531836554
 20
4.2739184491
 10
6.8532219056
 20
4.273781992
 10
6.8533364216
 20
4.2733728554
 10
6.8535269687
 20
4.272691802
 10
6.8537933123
 20
4.2717402983
  0
LWPOLYLINE
  5
178
330
1F
100
AcDbEntity
  8
0
  6
Continuous
 62
     7
370
    15
100
AcDbPolyline
 90
        5
 70
   128
 43
0.0
 10
6.7944594698
 20
4.2551328368
 10
6.7941931262
 20
4.2560843991
 10
6.794002579
 20
4.2567653939
 10
6.793888063
 20
4.2571745892
 10
6.7938498128
 20
4.2573110463
  0
LINE
  5
179
330
1F
100
AcDbEntity
  8
0
  6
Continuous
 62
     7
370
    15
100
AcDbLine
 10
6.8079040718
 20
4.2628193133
 30
0.0
 11
6.8071545551
 21
4.2620528422
 31
0.0
  0
LINE
  5
17A
330
1F
100
AcDbEntity
  8
0
  6
Continuous
 62
     7
370
    15
100
AcDbLine
 10
6.8071545551
 20
4.2620528422
 30
0.0
 11
6.8068030285
 21
4.2623964489
 31
0.0
  0
LINE
  5
17B
330
1F
100
AcDbEntity
  8
0
  6
Continuous
 62
     7
370
    15
100
AcDbLine
 10
6.8068030285
 20
4.2623964489
 30
0.0
 11
6.8075527798
 21
4.26316292
 31
0.0
  0
LINE
  5
17C
330
1F
100
AcDbEntity
  8
0
  6
Continuous
 62
     7
370
    15
100
AcDbLine
 10
6.8075527798
 20
4.26316292
 30
0.0
 11
6.8079040718
 21
4.2628193133
 31
0.0
  0
LINE
  5
17D
330
1F
100
AcDbEntity
  8
0
  6
Continuous
 62
     7
370
    15
100
AcDbLine
 10
6.802715417
 20
4.2804457444
 30
0.0
 11
6.8016767944
 21
4.2807116773
 31
0.0
  0
LINE
  5
17E
330
1F
100
AcDbEntity
  8
0
  6
Continuous
 62
     7
370
    15
100
AcDbLine
 10
6.802715417
 20
4.2804457444
 30
0.0
 11
6.8043381183
 21
4.2746477847
 31
0.0
  0
LINE
  5
17F
330
1F
100
AcDbEntity
  8
0
  6
Continuous
 62
     7
370
    15
100
AcDbLine
 10
6.8039159578
 20
4.2745296314
 30
0.0
 11
6.8043381183
 21
4.2746477847
 31
0.0
  0
LINE
  5
180
330
1F
100
AcDbEntity
  8
0
  6
Continuous
 62
     7
370
    15
100
AcDbLine
 10
6.8040236686
 20
4.2740487463
 30
0.0
 11
6.8039159578
 21
4.2745296314
 31
0.0
  0
LINE
  5
181
330
1F
100
AcDbEntity
  8
0
  6
Continuous
 62
     7
370
    15
100
AcDbLine
 10
6.8040236686
 20
4.2740487463
 30
0.0
 11
6.8053502239
 21
4.269309649
 31
0.0
  0
LINE
  5
182
330
1F
100
AcDbEntity
  8
0
  6
Continuous
 62
     7
370
    15
100
AcDbLine
 10
6.8055076835
 20
4.2688426678
 30
0.0
 11
6.8053502239
 21
4.269309649
 31
0.0
  0
LINE
  5
183
330
1F
100
AcDbEntity
  8
0
  6
Continuous
 62
     7
370
    15
100
AcDbLine
 10
6.8059298439
 20
4.2689608797
 30
0.0
 11
6.8055076835
 21
4.2688426678
 31
0.0
  0
LINE
  5
184
330
1F
100
AcDbEntity
  8
0
  6
Continuous
 62
     7
370
    15
100
AcDbLine
 10
6.8059298439
 20
4.2689608797
 30
0.0
 11
6.8075527798
 21
4.26316292
 31
0.0
  0
LINE
  5
185
330
1F
100
AcDbEntity
  8
0
  6
Continuous
 62
     7
370
    15
100
AcDbLine
 10
6.8016767944
 20
4.2807116773
 30
0.0
 11
6.8068030285
 21
4.2623964489
 31
0.0
  0
LINE
  5
186
330
1F
100
AcDbEntity
  8
0
  6
Continuous
 62
     7
370
    15
100
AcDbLine
 10
6.801798585
 20
4.2811877518
 30
0.0
 11
6.8028372076
 21
4.2809218189
 31
0.0
  0
LINE
  5
187
330
1F
100
AcDbEntity
  8
0
  6
Continuous
 62
     7
370
    15
100
AcDbLine
 10
6.8150969913
 20
4.2947849441
 30
0.0
 11
6.801798585
 21
4.2811877518
 31
0.0
  0
LINE
  5
188
330
1F
100
AcDbEntity
  8
0
  6
Continuous
 62
     7
370
    15
100
AcDbLine
 10
6.8153858627
 20
4.29375254
 30
0.0
 11
6.8150969913
 21
4.2947849441
 31
0.0
  0
LINE
  5
189
330
1F
100
AcDbEntity
  8
0
  6
Continuous
 62
     7
370
    15
100
AcDbLine
 10
6.8153858627
 20
4.29375254
 30
0.0
 11
6.8028372076
 21
4.2809218189
 31
0.0
  0
LINE
  5
18A
330
1F
100
AcDbEntity
  8
0
  6
Continuous
 62
     7
370
    15
100
AcDbLine
 10
6.8252900896
 20
4.2583672688
 30
0.0
 11
6.8257634068
 21
4.2584997366
 31
0.0
  0
LINE
  5
18B
330
1F
100
AcDbEntity
  8
0
  6
Continuous
 62
     7
370
    15
100
AcDbLine
 10
6.8079040718
 20
4.2628193133
 30
0.0
 11
6.8252900896
 21
4.2583672688
 31
0.0
  0
LINE
  5
18C
330
1F
100
AcDbEntity
  8
0
  6
Continuous
 62
     7
370
    15
100
AcDbLine
 10
6.8059298439
 20
4.2689608797
 30
0.0
 11
6.8068776516
 21
4.2692261673
 31
0.0
  0
LINE
  5
18D
330
1F
100
AcDbEntity
  8
0
  6
Continuous
 62
     7
370
    15
100
AcDbLine
 10
6.8068776516
 20
4.2692261673
 30
0.0
 11
6.8084238524
 21
4.2637022365
 31
0.0
  0
LINE
  5
18E
330
1F
100
AcDbEntity
  8
0
  6
Continuous
 62
     7
370
    15
100
AcDbLine
 10
6.8084238524
 20
4.2637022365
 30
0.0
 11
6.8252586446
 21
4.2593912836
 31
0.0
  0
LINE
  5
18F
330
1F
100
AcDbEntity
  8
0
  6
Continuous
 62
     7
370
    15
100
AcDbLine
 10
6.8252586446
 20
4.2593912836
 30
0.0
 11
6.8374095443
 21
4.2718152148
 31
0.0
  0
LINE
  5
190
330
1F
100
AcDbEntity
  8
0
  6
Continuous
 62
     7
370
    15
100
AcDbLine
 10
6.8374095443
 20
4.2718152148
 30
0.0
 11
6.8358633434
 21
4.2773391456
 31
0.0
  0
LINE
  5
191
330
1F
100
AcDbEntity
  8
0
  6
Continuous
 62
     7
370
    15
100
AcDbLine
 10
6.8358633434
 20
4.2773391456
 30
0.0
 11
6.8368111512
 21
4.2776044332
 31
0.0
  0
LINE
  5
192
330
1F
100
AcDbEntity
  8
0
  6
Continuous
 62
     7
370
    15
100
AcDbLine
 10
6.8384338524
 20
4.2718065322
 30
0.0
 11
6.8368111512
 21
4.2776044332
 31
0.0
  0
LINE
  5
193
330
1F
100
AcDbEntity
  8
0
  6
Continuous
 62
     7
370
    15
100
AcDbLine
 10
6.8383120618
 20
4.2713304577
 30
0.0
 11
6.8384338524
 21
4.2718065322
 31
0.0
  0
LINE
  5
194
330
1F
100
AcDbEntity
  8
0
  6
Continuous
 62
     7
370
    15
100
AcDbLine
 10
6.8257634068
 20
4.2584997366
 30
0.0
 11
6.8383120618
 21
4.2713304577
 31
0.0
  0
LINE
  5
195
330
1F
100
AcDbEntity
  8
0
  6
Continuous
 62
     7
370
    15
100
AcDbLine
 10
6.8255791956
 20
4.257334806
 30
0.0
 11
6.8252900896
 21
4.2583672688
 31
0.0
  0
LINE
  5
196
330
1F
100
AcDbEntity
  8
0
  6
Continuous
 62
     7
370
    15
100
AcDbLine
 10
6.8071545551
 20
4.2620528422
 30
0.0
 11
6.8255791956
 21
4.257334806
 31
0.0
  0
LINE
  5
197
330
1F
100
AcDbEntity
  8
0
  6
Continuous
 62
     7
370
    15
100
AcDbLine
 10
6.8372333116
 20
4.2777226452
 30
0.0
 11
6.8368111512
 21
4.2776044332
 31
0.0
  0
LINE
  5
198
330
1F
100
AcDbEntity
  8
0
  6
Continuous
 62
     7
370
    15
100
AcDbLine
 10
6.8371256009
 20
4.2782034716
 30
0.0
 11
6.8372333116
 21
4.2777226452
 31
0.0
  0
LINE
  5
199
330
1F
100
AcDbEntity
  8
0
  6
Continuous
 62
     7
370
    15
100
AcDbLine
 10
6.8371256009
 20
4.2782034716
 30
0.0
 11
6.8357990455
 21
4.2829426275
 31
0.0
  0
LINE
  5
19A
330
1F
100
AcDbEntity
  8
0
  6
Continuous
 62
     7
370
    15
100
AcDbLine
 10
6.835641586
 20
4.2834095501
 30
0.0
 11
6.8357990455
 21
4.2829426275
 31
0.0
  0
LINE
  5
19B
330
1F
100
AcDbEntity
  8
0
  6
Continuous
 62
     7
370
    15
100
AcDbLine
 10
6.8352194256
 20
4.2832913968
 30
0.0
 11
6.835641586
 21
4.2834095501
 31
0.0
  0
LINE
  5
19C
330
1F
100
AcDbEntity
  8
0
  6
Continuous
 62
     7
370
    15
100
AcDbLine
 10
6.8352194256
 20
4.2832913968
 30
0.0
 11
6.8335964896
 21
4.2890892979
 31
0.0
  0
LINE
  5
19D
330
1F
100
AcDbEntity
  8
0
  6
Continuous
 62
     7
370
    15
100
AcDbLine
 10
6.834346241
 20
4.289855769
 30
0.0
 11
6.8335964896
 21
4.2890892979
 31
0.0
  0
LINE
  5
19E
330
1F
100
AcDbEntity
  8
0
  6
Continuous
 62
     7
370
    15
100
AcDbLine
 10
6.8394724751
 20
4.2715405406
 30
0.0
 11
6.834346241
 21
4.289855769
 31
0.0
  0
LINE
  5
19F
330
1F
100
AcDbEntity
  8
0
  6
Continuous
 62
     7
370
    15
100
AcDbLine
 10
6.8384338524
 20
4.2718065322
 30
0.0
 11
6.8394724751
 21
4.2715405406
 31
0.0
  0
LINE
  5
1A0
330
1F
100
AcDbEntity
  8
0
  6
Continuous
 62
     7
370
    15
100
AcDbLine
 10
6.8016767944
 20
4.2807116773
 30
0.0
 11
6.801798585
 21
4.2811877518
 31
0.0
  0
LINE
  5
1A1
330
1F
100
AcDbEntity
  8
0
  6
Continuous
 62
     7
370
    15
100
AcDbLine
 10
6.8028372076
 20
4.2809218189
 30
0.0
 11
6.802715417
 21
4.2804457444
 31
0.0
  0
LINE
  5
1A2
330
1F
100
AcDbEntity
  8
0
  6
Continuous
 62
     7
370
    15
100
AcDbLine
 10
6.8150969913
 20
4.2947849441
 30
0.0
 11
6.8155700739
 21
4.2949174119
 31
0.0
  0
LINE
  5
1A3
330
1F
100
AcDbEntity
  8
0
  6
Continuous
 62
     7
370
    15
100
AcDbLine
 10
6.8155700739
 20
4.2949174119
 30
0.0
 11
6.8158591799
 21
4.2938850078
 31
0.0
  0
LINE
  5
1A4
330
1F
100
AcDbEntity
  8
0
  6
Continuous
 62
     7
370
    15
100
AcDbLine
 10
6.8158591799
 20
4.2938850078
 30
0.0
 11
6.8153858627
 21
4.29375254
 31
0.0
  0
LINE
  5
1A5
330
1F
100
AcDbEntity
  8
0
  6
Continuous
 62
     7
370
    15
100
AcDbLine
 10
6.8257634068
 20
4.2584997366
 30
0.0
 11
6.8260522781
 21
4.2574672738
 31
0.0
  0
LINE
  5
1A6
330
1F
100
AcDbEntity
  8
0
  6
Continuous
 62
     7
370
    15
100
AcDbLine
 10
6.8393506845
 20
4.2710644661
 30
0.0
 11
6.8383120618
 21
4.2713304577
 31
0.0
  0
LINE
  5
1A7
330
1F
100
AcDbEntity
  8
0
  6
Continuous
 62
     7
370
    15
100
AcDbLine
 10
6.8260522781
 20
4.2574672738
 30
0.0
 11
6.8393506845
 21
4.2710644661
 31
0.0
  0
LINE
  5
1A8
330
1F
100
AcDbEntity
  8
0
  6
Continuous
 62
     7
370
    15
100
AcDbLine
 10
6.8260522781
 20
4.2574672738
 30
0.0
 11
6.8255791956
 21
4.257334806
 31
0.0
  0
LINE
  5
1A9
330
1F
100
AcDbEntity
  8
0
  6
Continuous
 62
     7
370
    15
100
AcDbLine
 10
6.832725417
 20
4.2885500401
 30
0.0
 11
6.8158906248
 21
4.2928609343
 31
0.0
  0
LINE
  5
1AA
330
1F
100
AcDbEntity
  8
0
  6
Continuous
 62
     7
370
    15
100
AcDbLine
 10
6.8158906248
 20
4.2928609343
 30
0.0
 11
6.8037399599
 21
4.2804370032
 31
0.0
  0
LINE
  5
1AB
330
1F
100
AcDbEntity
  8
0
  6
Continuous
 62
     7
370
    15
100
AcDbLine
 10
6.8332451977
 20
4.2894329046
 30
0.0
 11
6.8158591799
 21
4.2938850078
 31
0.0
  0
LINE
  5
1AC
330
1F
100
AcDbEntity
  8
0
  6
Continuous
 62
     7
370
    15
100
AcDbLine
 10
6.8335964896
 20
4.2890892979
 30
0.0
 11
6.8332451977
 21
4.2894329046
 31
0.0
  0
LINE
  5
1AD
330
1F
100
AcDbEntity
  8
0
  6
Continuous
 62
     7
370
    15
100
AcDbLine
 10
6.8352194256
 20
4.2832913968
 30
0.0
 11
6.8342716178
 21
4.2830261092
 31
0.0
  0
LINE
  5
1AE
330
1F
100
AcDbEntity
  8
0
  6
Continuous
 62
     7
370
    15
100
AcDbLine
 10
6.805285926
 20
4.2749130723
 30
0.0
 11
6.8043381183
 21
4.2746477847
 31
0.0
  0
LINE
  5
1AF
330
1F
100
AcDbEntity
  8
0
  6
Continuous
 62
     7
370
    15
100
AcDbLine
 10
6.8037399599
 20
4.2804370032
 30
0.0
 11
6.805285926
 21
4.2749130723
 31
0.0
  0
LINE
  5
1B0
330
1F
100
AcDbEntity
  8
0
  6
Continuous
 62
     7
370
    15
100
AcDbLine
 10
6.8342716178
 20
4.2830261092
 30
0.0
 11
6.832725417
 21
4.2885500401
 31
0.0
  0
LINE
  5
1B1
330
1F
100
AcDbEntity
  8
0
  6
Continuous
 62
     7
370
    15
100
AcDbLine
 10
6.8339947144
 20
4.2901994344
 30
0.0
 11
6.8155700739
 21
4.2949174119
 31
0.0
  0
LINE
  5
1B2
330
1F
100
AcDbEntity
  8
0
  6
Continuous
 62
     7
370
    15
100
AcDbLine
 10
6.8332451977
 20
4.2894329046
 30
0.0
 11
6.8339947144
 21
4.2901994344
 31
0.0
  0
LINE
  5
1B3
330
1F
100
AcDbEntity
  8
0
  6
Continuous
 62
     7
370
    15
100
AcDbLine
 10
6.8339947144
 20
4.2901994344
 30
0.0
 11
6.834346241
 21
4.289855769
 31
0.0
  0
LINE
  5
1B4
330
1F
100
AcDbEntity
  8
0
  6
Continuous
 62
     7
370
    15
100
AcDbLine
 10
6.8394724751
 20
4.2715405406
 30
0.0
 11
6.8393506845
 21
4.2710644661
 31
0.0
  0
LINE
  5
1B5
330
1F
100
AcDbEntity
  8
0
  6
Continuous
 62
     7
370
    15
100
AcDbLine
 10
6.8051533409
 20
4.2753870348
 30
0.0
 11
6.834138798
 21
4.2835000131
 31
0.0
  0
LINE
  5
1B6
330
1F
100
AcDbEntity
  8
0
  6
Continuous
 62
     7
370
    15
100
AcDbLine
 10
6.8342716178
 20
4.2830261092
 30
0.0
 11
6.805285926
 21
4.2749130723
 31
0.0
  0
LINE
  5
1B7
330
1F
100
AcDbEntity
  8
0
  6
Continuous
 62
     7
370
    15
100
AcDbLine
 10
6.8359959286
 20
4.2768652417
 30
0.0
 11
6.8070104714
 21
4.2687522635
 31
0.0
  0
LINE
  5
1B8
330
1F
100
AcDbEntity
  8
0
  6
Continuous
 62
     7
370
    15
100
AcDbLine
 10
6.8068776516
 20
4.2692261673
 30
0.0
 11
6.8358633434
 21
4.2773391456
 31
0.0
  0
LINE
  5
1B9
330
1F
100
AcDbEntity
  8
0
  6
Continuous
 62
     7
370
    15
100
AcDbLine
 10
6.8357990455
 20
4.2829426275
 30
0.0
 11
6.8040236686
 21
4.2740487463
 31
0.0
  0
LINE
  5
1BA
330
1F
100
AcDbEntity
  8
0
  6
Continuous
 62
     7
370
    15
100
AcDbLine
 10
6.8053502239
 20
4.269309649
 30
0.0
 11
6.8371256009
 21
4.2782034716
 31
0.0
  0
CIRCLE
  5
1BB
330
1F
100
AcDbEntity
  8
0
  6
Continuous
 62
     7
370
    15
100
AcDbCircle
 10
6.820574637
 20
4.2761261209
 30
0.0
 40
0.0199803149606302
  0
LWPOLYLINE
  5
1BC
330
1F
100
AcDbEntity
  8
0
  6
Continuous
 62
     8
370
    15
100
AcDbPolyline
 90
       34
 70
   128
 43
0.0
 10
7.1150048015
 20
4.0279475626
 10
7.1148215289
 20
4.0286309627
 10
7.1142738232
 20
4.0306750031
 10
7.1133666124
 20
4.0340610866
 10
7.1121078749
 20
4.038758707
 10
7.1105091094
 20
4.0447251554
 10
7.1085848649
 20
4.0519065178
 10
7.1063525067
 20
4.0602376749
 10
7.1038324505
 20
4.0696432409
 10
7.101047224
 20
4.0800380328
 10
7.0980219363
 20
4.0913278331
 10
7.0947845124
 20
4.1034105042
 10
7.0913638159
 20
4.1161765754
 10
7.0877910572
 20
4.129510416
 10
7.0840983852
 20
4.1432913501
 10
7.0803195915
 20
4.1573944779
 10
7.0764884677
 20
4.171692142
 10
7.0726399789
 20
4.1860548081
 10
7.0688090898
 20
4.2003524723
 10
7.0650300614
 20
4.2144556
 10
7.0613373894
 20
4.2282364755
 10
7.0577646307
 20
4.2415703748
 10
7.0543439342
 20
4.254336446
 10
7.0511065103
 20
4.2664190584
 10
7.0480814572
 20
4.2777089173
 10
7.0452959961
 20
4.2881037093
 10
7.0427759398
 20
4.2975092166
 10
7.0405435816
 20
4.3058404324
 10
7.0386193372
 20
4.3130217361
 10
7.0370205717
 20
4.3189882431
 10
7.0357618342
 20
4.3236858049
 10
7.0348546234
 20
4.3270719471
 10
7.0343069177
 20
4.3291159875
 10
7.0341238798
 20
4.3297993876
  0
LWPOLYLINE
  5
1BD
330
1F
100
AcDbEntity
  8
0
  6
Continuous
 62
     8
370
    15
100
AcDbPolyline
 90
       35
 70
   128
 43
0.0
 10
7.1102620082
 20
4.0285719447
 10
7.1100810823
 20
4.0292473076
 10
7.1095399472
 20
4.0312674122
 10
7.1086430616
 20
4.0346138963
 10
7.107399108
 20
4.0392564293
 10
7.1058191156
 20
4.0451530065
 10
7.1039176335
 20
4.0522501832
 10
7.101711323
 20
4.0604837787
 10
7.0992205998
 20
4.0697791114
 10
7.0964679916
 20
4.0800521127
 10
7.0934783728
 20
4.0912096798
 10
7.0902787298
 20
4.1031507898
 10
7.0868981608
 20
4.1157672628
 10
7.0833671723
 20
4.1289449345
 10
7.0797179131
 20
4.1425643612
 10
7.0759832362
 20
4.1565022855
 10
7.072197168
 20
4.1706323996
 10
7.0683937346
 20
4.1848268703
 10
7.0646076663
 20
4.1989569844
 10
7.0608729895
 20
4.2128949087
 10
7.0572234956
 20
4.2265143354
 10
7.0536927417
 20
4.2396920072
 10
7.0503121728
 20
4.2523084801
 10
7.0471125297
 20
4.2642495901
 10
7.044122911
 20
4.2754071573
 10
7.0413700681
 20
4.2856801586
 10
7.0388795795
 20
4.2949754912
 10
7.036673269
 20
4.3032090868
 10
7.0347715523
 20
4.3103062634
 10
7.0331915599
 20
4.3162028406
 10
7.0319476063
 20
4.3208454323
 10
7.0310509553
 20
4.3241918577
 10
7.0305098202
 20
4.3262119624
 10
7.0303286596
 20
4.3268873252
 10
7.0303286596
 20
4.3268873252
  0
LWPOLYLINE
  5
1BE
330
1F
100
AcDbEntity
  8
0
  6
Continuous
 62
     8
370
    15
100
AcDbPolyline
 90
       34
 70
   128
 43
0.0
 10
7.1021923841
 20
4.0332309629
 10
7.1020138049
 20
4.0338975259
 10
7.1014797097
 20
4.0358911722
 10
7.1005947919
 20
4.0391931874
 10
7.0993677341
 20
4.0437727131
 10
7.0978098001
 20
4.0495870406
 10
7.0959355391
 20
4.0565819038
 10
7.0937625508
 20
4.0646920075
 10
7.0913107818
 20
4.0738415551
 10
7.0886036984
 20
4.083945129
 10
7.0856659404
 20
4.0949084531
 10
7.0825254327
 20
4.1066290963
 10
7.0792112736
 20
4.1189977054
 10
7.0757544389
 20
4.1318987671
 10
7.0721873121
 20
4.1452117813
 10
7.0685429808
 20
4.1588124935
 10
7.0648557061
 20
4.1725738919
 10
7.0611597488
 20
4.1863675565
 10
7.0574896045
 20
4.2000645983
 10
7.0538795342
 20
4.213537184
 10
7.0503633295
 20
4.2266595337
 10
7.046974078
 20
4.2393091529
 10
7.0437427553
 20
4.2513678296
 10
7.0407003372
 20
4.2627231011
 10
7.0378745138
 20
4.2732688993
 10
7.035292037
 20
4.282906724
 10
7.032977077
 20
4.2915465815
 10
7.0309509884
 20
4.2991078648
 10
7.029232779
 20
4.3055199987
 10
7.0278386404
 20
4.3107230266
 10
7.0267814793
 20
4.314668373
 10
7.0260711515
 20
4.3173192544
 10
7.0257144623
 20
4.3186509724
 10
7.0256696415
 20
4.3188177011
  0
LWPOLYLINE
  5
1BF
330
1F
100
AcDbEntity
  8
0
  6
Continuous
 62
     8
370
    15
100
AcDbPolyline
 90
       30
 70
   128
 43
0.0
 10
7.087288407
 20
4.0676349868
 10
7.087108185
 20
4.0683075924
 10
7.0865698659
 20
4.0703169025
 10
7.0856800202
 20
4.0736376908
 10
7.0844499118
 20
4.0782281284
 10
7.082895263
 20
4.0840306054
 10
7.0810353165
 20
4.0909720239
 10
7.0788935386
 20
4.0989652062
 10
7.0764969156
 20
4.1079095402
 10
7.0738754846
 20
4.1176925632
 10
7.0710623331
 20
4.1281913112
 10
7.0680928954
 20
4.1392736685
 10
7.0650044831
 20
4.1508003621
 10
7.061835581
 20
4.1626263694
 10
7.0586265514
 20
4.1746029724
 10
7.0554172871
 20
4.1865795754
 10
7.0522486197
 20
4.1984055828
 10
7.0491599728
 20
4.2099322176
 10
7.0461905351
 20
4.2210146336
 10
7.0433773836
 20
4.231513323
 10
7.0407559525
 20
4.2412964046
 10
7.0383593295
 20
4.2502407386
 10
7.0362175516
 20
4.2582338623
 10
7.0343576051
 20
4.2651752808
 10
7.0328029564
 20
4.2709777578
 10
7.0315728479
 20
4.2755681954
 10
7.0306830022
 20
4.2788889837
 10
7.0301446831
 20
4.2808982938
 10
7.0299644612
 20
4.2815708994
 10
7.0299644612
 20
4.2815708994
  0
LWPOLYLINE
  5
1C0
330
1F
100
AcDbEntity
  8
0
  6
Continuous
 62
     8
370
    15
100
AcDbPolyline
 90
       28
 70
   128
 43
0.0
 10
7.0745278504
 20
4.075002379
 10
7.0743455165
 20
4.0756825525
 10
7.0738013308
 20
4.0777134517
 10
7.0729028025
 20
4.0810666823
 10
7.0716626035
 20
4.0856950182
 10
7.0700983335
 20
4.0915336334
 10
7.0682315818
 20
4.0985005129
 10
7.0660886305
 20
4.1064978018
 10
7.0636997515
 20
4.1154132722
 10
7.0610982668
 20
4.125121848
 10
7.0583210189
 20
4.135487131
 10
7.0554064926
 20
4.146363688
 10
7.0523962234
 20
4.1575987529
 10
7.0493319814
 20
4.1690346901
 10
7.046256945
 20
4.1805109895
 10
7.0432140574
 20
4.191866437
 10
7.0402464971
 20
4.2029416957
 10
7.0373955647
 20
4.2135813008
 10
7.0347016225
 20
4.2236358887
 10
7.032201982
 20
4.2329643089
 10
7.0299320776
 20
4.2414355604
 10
7.0279238234
 20
4.2489308444
 10
7.0262051446
 20
4.255344797
 10
7.0248004462
 20
4.2605874831
 10
7.0237292052
 20
4.2645853356
 10
7.0230066749
 20
4.2672820938
 10
7.0226427111
 20
4.2686400354
 10
7.0225971863
 20
4.2688102255
  0
LWPOLYLINE
  5
1C1
330
1F
100
AcDbEntity
  8
0
  6
Continuous
 62
     8
370
    15
100
AcDbPolyline
 90
       27
 70
   128
 43
0.0
 10
7.0555573815
 20
4.0774999075
 10
7.055374813
 20
4.078180785
 10
7.0548303926
 20
4.0802130335
 10
7.0539318643
 20
4.0835659708
 10
7.0526933079
 20
4.0881886747
 10
7.0511330273
 20
4.0940110981
 10
7.0492751928
 20
4.1009450073
 10
7.0471477293
 20
4.1088852143
 10
7.0447825513
 20
4.1177114536
 10
7.0422160316
 20
4.127289791
 10
7.0394868898
 20
4.137475204
 10
7.0366364268
 20
4.1481131664
 10
7.0337080553
 20
4.1590424055
 10
7.0307458921
 20
4.1700973658
 10
7.0277949929
 20
4.1811103212
 10
7.0248999437
 20
4.1919144258
 10
7.0221048613
 20
4.2023458839
 10
7.0194519853
 20
4.2122465322
 10
7.0169816778
 20
4.2214663031
 10
7.0147310158
 20
4.229865454
 10
7.0127344949
 20
4.2373166799
 10
7.011022152
 20
4.2437069315
 10
7.0096202695
 20
4.2489394097
 10
7.0085497326
 20
4.2529347982
 10
7.0078267329
 20
4.2556325537
 10
7.0074625345
 20
4.2569917273
 10
7.0074170096
 20
4.2571620934
  0
LWPOLYLINE
  5
1C2
330
1F
100
AcDbEntity
  8
0
  6
Continuous
 62
     8
370
    15
100
AcDbPolyline
 90
        4
 70
   128
 43
0.0
 10
6.9011815862
 20
4.0395082237
 10
6.901718028
 20
4.0375059535
 10
6.9022509499
 20
4.0355177045
 10
6.9024292945
 20
4.0348517282
  0
LWPOLYLINE
  5
1C3
330
1F
100
AcDbEntity
  8
0
  6
Continuous
 62
     8
370
    15
100
AcDbPolyline
 90
       12
 70
   128
 43
0.0
 10
6.9587784462
 20
4.1143317647
 10
6.9590778774
 20
4.1132137669
 10
6.9617729929
 20
4.1031555418
 10
6.964302201
 20
4.0937163015
 10
6.9666288942
 20
4.0850336765
 10
6.9687185767
 20
4.0772342679
 10
6.9705414463
 20
4.0704318878
 10
6.972070282
 20
4.0647256817
 10
6.97328326
 20
4.0601987794
 10
6.9741625458
 20
4.0569173559
 10
6.974695233
 20
4.0549291656
 10
6.9748738123
 20
4.0542631893
  0
LWPOLYLINE
  5
1C4
330
1F
100
AcDbEntity
  8
0
  6
Continuous
 62
     8
370
    15
100
AcDbPolyline
 90
       28
 70
   128
 43
0.0
 10
6.9801018905
 20
4.0556640744
 10
6.9799235459
 20
4.0563300507
 10
6.9793908587
 20
4.0583182411
 10
6.9785115729
 20
4.0615997232
 10
6.9772985949
 20
4.0661265669
 10
6.9757695246
 20
4.071832773
 10
6.9739468896
 20
4.0786352117
 10
6.9718569724
 20
4.0864345616
 10
6.969530514
 20
4.0951171866
 10
6.9670013059
 20
4.1045564269
 10
6.9643061903
 20
4.1146147107
 10
6.9614845909
 20
4.1251452558
 10
6.9585775738
 20
4.1359945918
 10
6.9556273786
 20
4.1470044379
 10
6.952677418
 20
4.1580142841
 10
6.9497701663
 20
4.1688636201
 10
6.9469485669
 20
4.1793941651
 10
6.9442534513
 20
4.1894523902
 10
6.9417242432
 20
4.1988916892
 10
6.9393977847
 20
4.2075743142
 10
6.9373078676
 20
4.2153736641
 10
6.9354852326
 20
4.2221760442
 10
6.9339561623
 20
4.2278823089
 10
6.9327431843
 20
4.2324091526
 10
6.9318638984
 20
4.2356905761
 10
6.9313312113
 20
4.2376788251
 10
6.9311528667
 20
4.2383448014
 10
6.9311528667
 20
4.2383448014
  0
LWPOLYLINE
  5
1C5
330
1F
100
AcDbEntity
  8
0
  6
Continuous
 62
     8
370
    15
100
AcDbPolyline
 90
        4
 70
   128
 43
0.0
 10
6.899410812
 20
4.0356605562
 10
6.8992282435
 20
4.0363414336
 10
6.8986838231
 20
4.0383737408
 10
6.8982757425
 20
4.0398965926
  0
LWPOLYLINE
  5
1C6
330
1F
100
AcDbEntity
  8
0
  6
Continuous
 62
     8
370
    15
100
AcDbPolyline
 90
        3
 70
   128
 43
0.0
 10
6.8943653023
 20
4.0544901093
 10
6.8931286232
 20
4.059105656
 10
6.8917990173
 20
4.0640681533
  0
LWPOLYLINE
  5
1C7
330
1F
100
AcDbEntity
  8
0
  6
Continuous
 62
     8
370
    15
100
AcDbPolyline
 90
        9
 70
   128
 43
0.0
 10
6.9718553298
 20
4.0550719586
 10
6.9716727612
 20
4.0557528361
 10
6.9711283409
 20
4.0577851432
 10
6.9702298126
 20
4.0611380805
 10
6.9689912562
 20
4.0657607844
 10
6.9674309756
 20
4.0715832078
 10
6.965573141
 20
4.0785171171
 10
6.9634454429
 20
4.086457324
 10
6.9611013847
 20
4.0952057723
  0
LWPOLYLINE
  5
1C8
330
1F
100
AcDbEntity
  8
0
  6
Continuous
 62
     8
370
    15
100
AcDbPolyline
 90
       27
 70
   128
 43
0.0
 10
6.9341713491
 20
4.2375359734
 10
6.9342168739
 20
4.2373656074
 10
6.9345810724
 20
4.2360064338
 10
6.935304072
 20
4.2333087369
 10
6.936374609
 20
4.2293132897
 10
6.9377767261
 20
4.2240808115
 10
6.9394888344
 20
4.21769056
 10
6.9414853553
 20
4.2102393341
 10
6.9437360173
 20
4.2018401831
 10
6.9462063248
 20
4.1926204123
 10
6.9488592008
 20
4.182719764
 10
6.9516542832
 20
4.1722883058
 10
6.9545493324
 20
4.1614842013
 10
6.9575002316
 20
4.1504712459
 10
6.9604623947
 20
4.1394162856
 10
6.9633910009
 20
4.1284870465
 10
6.9662412293
 20
4.117849084
 10
6.9689706058
 20
4.1076637297
 10
6.9715371255
 20
4.0980853337
 10
6.9739020688
 20
4.0892590943
 10
6.9760295322
 20
4.0813188874
 10
6.9778876014
 20
4.0743850368
 10
6.9794476474
 20
4.0685625547
 10
6.9806862038
 20
4.0639398508
 10
6.9815847321
 20
4.0605869722
 10
6.9821291524
 20
4.058554665
 10
6.982311721
 20
4.0578737876
  0
LWPOLYLINE
  5
1C9
330
1F
100
AcDbEntity
  8
0
  6
Continuous
 62
     8
370
    15
100
AcDbPolyline
 90
        7
 70
   128
 43
0.0
 10
6.7629293167
 20
4.0158344439
 10
6.7635101099
 20
4.0136672636
 10
6.7649119924
 20
4.0084347267
 10
6.7659825294
 20
4.0044393382
 10
6.766705529
 20
4.0017416413
 10
6.7670697275
 20
4.0003824677
 10
6.7671152523
 20
4.0002121017
  0
LINE
  5
1CA
330
1F
100
AcDbEntity
  8
0
  6
Continuous
 62
     8
370
    15
100
AcDbLine
 10
7.2163416148
 20
4.3605389578
 30
0.0
 11
7.2157042675
 21
4.3605166647
 31
0.0
  0
LINE
  5
1CB
330
1F
100
AcDbEntity
  8
0
  6
Continuous
 62
     8
370
    15
100
AcDbLine
 10
7.1358427261
 20
4.0193504726
 30
0.0
 11
7.2163416148
 21
4.0165394331
 31
0.0
  0
LINE
  5
1CC
330
1F
100
AcDbEntity
  8
0
  6
Continuous
 62
     8
370
    15
100
AcDbLine
 10
4.6040706133
 20
3.6546576055
 30
0.0
 11
4.6040706133
 21
3.614657609
 31
0.0
  0
LINE
  5
1CD
330
1F
100
AcDbEntity
  8
0
  6
Continuous
 62
     8
370
    15
100
AcDbLine
 10
4.6040706133
 20
3.7396576129
 30
0.0
 11
4.6040706133
 21
3.6996576164
 31
0.0
  0
LWPOLYLINE
  5
1CE
330
1F
100
AcDbEntity
  8
0
  6
Continuous
 62
     8
370
    15
100
AcDbPolyline
 90
       15
 70
   128
 43
0.0
 10
5.4704372076
 20
3.7466146072
 10
5.4685762051
 20
3.7532636931
 10
5.4654084764
 20
3.764581037
 10
5.4622869765
 20
3.7757333829
 10
5.4592571128
 20
3.7865580498
 10
5.4563632369
 20
3.7968972264
 10
5.4536474709
 20
3.8066001116
 10
5.4511493558
 20
3.8155252325
 10
5.4489052644
 20
3.8235424679
 10
5.446948167
 20
3.8305348378
 10
5.4453063406
 20
3.8364004394
 10
5.4440039557
 20
3.8410537376
 10
5.4430597852
 20
3.8444268266
 10
5.4424877918
 20
3.8464705737
 10
5.4422961887
 20
3.8471551471
  0
LINE
  5
1CF
330
1F
100
AcDbEntity
  8
0
  6
Continuous
 62
     8
370
    15
100
AcDbLine
 10
4.9294981873
 20
3.6720726337
 30
0.0
 11
4.9294981873
 21
3.7767426139
 31
0.0
  0
LWPOLYLINE
  5
1D0
330
1F
100
AcDbEntity
  8
0
  6
Continuous
 62
     8
370
    15
100
AcDbPolyline
 90
       15
 70
   128
 43
0.0
 10
5.4948562215
 20
3.6450322621
 10
5.4946646184
 20
3.6457168355
 10
5.494092625
 20
3.6477605825
 10
5.4931484546
 20
3.6511336863
 10
5.4918460697
 20
3.6557869698
 10
5.4902042433
 20
3.6616525714
 10
5.4882471459
 20
3.668644956
 10
5.4860030545
 20
3.6766621767
 10
5.4835049393
 20
3.6855872976
 10
5.4807891734
 20
3.6952901975
 10
5.4778951801
 20
3.705629374
 10
5.4748654338
 20
3.716454041
 10
5.4717439339
 20
3.7276063868
 10
5.4685762051
 20
3.7389237308
 10
5.466714616
 20
3.7455746059
  0
LINE
  5
1D1
330
1F
100
AcDbEntity
  8
0
  6
Continuous
 62
     8
370
    15
100
AcDbLine
 10
4.9294981873
 20
3.5674026682
 30
0.0
 11
4.9294981873
 21
3.6720726337
 31
0.0
  0
SPLINE
  5
1D2
330
1F
100
AcDbEntity
  8
0
  6
Continuous
 62
     8
370
    15
100
AcDbSpline
210
0.0
220
0.0
230
1.0
 70
     8
 71
     3
 72
    10
 73
     6
 74
     0
 42
0.00000001
 43
0.00000001
 12
1.0
 22
0.0
 32
0.0
 13
1.0
 23
0.0
 33
0.0
 40
0.0
 40
0.0
 40
0.0
 40
0.0
 40
0.2849274504849009
 40
0.9061069533377215
 40
1.0
 40
1.0
 40
1.0
 40
1.0
 10
6.845465088529492
 20
4.278146741608571
 30
0.0
 10
6.845446766548493
 20
4.278200062852188
 30
0.0
 10
6.845388500227174
 20
4.278369631454724
 30
0.0
 10
6.845759581145514
 20
4.277297174633349
 30
0.0
 10
6.846040862318437
 20
4.276255132381691
 30
0.0
 10
6.846077796118109
 20
4.276118306374562
 30
0.0
  0
SPLINE
  5
1D3
330
1F
100
AcDbEntity
  8
0
  6
Continuous
 62
     8
370
    15
100
AcDbSpline
210
0.0
220
0.0
230
1.0
 70
     8
 71
     3
 72
     9
 73
     5
 74
     0
 42
0.00000001
 43
0.00000001
 12
1.0
 22
0.0
 32
0.0
 13
1.0
 23
0.0
 33
0.0
 40
0.0
 40
0.0
 40
0.0
 40
0.0
 40
0.6376503627844989
 40
1.0
 40
1.0
 40
1.0
 40
1.0
 10
6.79878127582488
 20
4.262880091303551
 30
0.0
 10
6.798557222080215
 20
4.263743090654947
 30
0.0
 10
6.798205848102026
 20
4.265096495909241
 30
0.0
 10
6.798239632262343
 20
4.26497557420489
 30
0.0
 10
6.798251873940576
 20
4.264931758269187
 30
0.0
  0
LWPOLYLINE
  5
1D4
330
1F
100
AcDbEntity
  8
0
  6
Continuous
 62
     8
370
    15
100
AcDbPolyline
 90
        5
 70
   128
 43
0.0
 10
6.8038009725
 20
4.2454937802
 10
6.8035566873
 20
4.2463662607
 10
6.8033820973
 20
4.2469907015
 10
6.8032769679
 20
4.2473658119
 10
6.803242003
 20
4.2474909464
  0
LINE
  5
1D5
330
1F
100
AcDbEntity
  8
0
  6
Continuous
 62
     7
370
     0
100
AcDbLine
 10
5.4389885682
 20
3.8446322792
 30
0.0
 11
5.4948562553
 21
3.6450322663
 31
0.0
  0
LINE
  5
1D6
330
1F
100
AcDbEntity
  8
0
  6
Continuous
 62
     7
370
     0
100
AcDbLine
 10
5.4948562553
 20
3.6450322663
 30
0.0
 11
5.5214331905
 21
3.652471103
 31
0.0
  0
LINE
  5
1D7
330
1F
100
AcDbEntity
  8
0
  6
Continuous
 62
     7
370
     0
100
AcDbLine
 10
5.5214331905
 20
3.652471103
 30
0.0
 11
5.4655655033
 21
3.8520711159
 31
0.0
  0
LINE
  5
1D8
330
1F
100
AcDbEntity
  8
0
  6
Continuous
 62
     7
370
     0
100
AcDbLine
 10
5.4655655033
 20
3.8520711159
 30
0.0
 11
5.4389885682
 21
3.8446322792
 31
0.0
  0
LINE
  5
1D9
330
1F
100
AcDbEntity
  8
0
  6
Continuous
 62
     7
370
     0
100
AcDbLine
 10
5.9553771692
 20
3.9906331466
 30
0.0
 11
5.9831454137
 21
3.9984054286
 31
0.0
  0
LINE
  5
1DA
330
1F
100
AcDbEntity
  8
0
  6
Continuous
 62
     7
370
     0
100
AcDbLine
 10
7.2469286671
 20
3.4496576084
 30
0.0
 11
7.2469286671
 21
3.1496576084
 31
0.0
  0
LINE
  5
1DB
330
1F
100
AcDbEntity
  8
0
  6
Continuous
 62
     7
370
     0
100
AcDbLine
 10
7.2469286671
 20
3.1496576084
 30
0.0
 11
6.9469286671
 21
3.1496576084
 31
0.0
  0
LINE
  5
1DC
330
1F
100
AcDbEntity
  8
0
  6
Continuous
 62
     7
370
     0
100
AcDbLine
 10
2.1449286671
 20
3.1496576084
 30
0.0
 11
2.1449286671
 21
2.8296576084
 31
0.0
  0
LINE
  5
1DD
330
1F
100
AcDbEntity
  8
0
  6
Continuous
 62
     7
370
     0
100
AcDbLine
 10
2.1449286671
 20
2.8296576084
 30
0.0
 11
7.2469286671
 21
2.8296576084
 31
0.0
  0
LINE
  5
1DE
330
1F
100
AcDbEntity
  8
0
  6
Continuous
 62
     7
370
     0
100
AcDbLine
 10
7.2469286671
 20
3.2344688693
 30
0.0
 11
7.2469286671
 21
2.8296576084
 31
0.0
  0
LINE
  5
1DF
330
1F
100
AcDbEntity
  8
0
  6
Continuous
 62
     7
370
     0
100
AcDbLine
 10
6.9469286671
 20
3.1496576084
 30
0.0
 11
7.2469286671
 21
3.4496576084
 31
0.0
  0
LINE
  5
1E0
330
1F
100
AcDbEntity
  8
0
  6
Continuous
 62
     7
370
     0
100
AcDbLine
 10
7.2469286671
 20
3.4496576084
 30
0.0
 11
7.2469286671
 21
3.2344688693
 31
0.0
  0
LINE
  5
1E1
330
1F
100
AcDbEntity
  8
0
  6
Continuous
 62
     7
370
     0
100
AcDbLine
 10
9.3869286671
 20
3.4496576084
 30
0.0
 11
9.3869286671
 21
2.8296576084
 31
0.0
  0
LINE
  5
1E2
330
1F
100
AcDbEntity
  8
0
  6
Continuous
 62
     7
370
     0
100
AcDbLine
 10
7.0317399281
 20
3.2344688693
 30
0.0
 11
7.2469286671
 21
3.4496576084
 31
0.0
  0
LINE
  5
1E3
330
1F
100
AcDbEntity
  8
0
  6
Continuous
 62
     7
370
     0
100
AcDbLine
 10
9.3869286671
 20
2.8296576084
 30
0.0
 11
10.7869286671
 21
2.8296576084
 31
0.0
  0
LINE
  5
1E4
330
1F
100
AcDbEntity
  8
0
  6
Continuous
 62
     7
370
     0
100
AcDbLine
 10
10.7869286671
 20
2.8296576084
 30
0.0
 11
10.7869286671
 21
3.1496576084
 31
0.0
  0
LINE
  5
1E5
330
1F
100
AcDbEntity
  8
0
  6
Continuous
 62
     7
370
     0
100
AcDbLine
 10
10.7869286671
 20
3.1496576084
 30
0.0
 11
9.6869286671
 21
3.1496576084
 31
0.0
  0
LINE
  5
1E6
330
1F
100
AcDbEntity
  8
0
  6
Continuous
 62
     7
370
     0
100
AcDbLine
 10
9.6869286671
 20
3.1496576084
 30
0.0
 11
9.3869286671
 21
3.4496576084
 31
0.0
  0
LINE
  5
1E7
330
1F
100
AcDbEntity
  8
0
  6
Continuous
 62
     7
370
     0
100
AcDbLine
 10
5.9831454137
 20
3.9984054286
 30
0.0
 11
6.0393932624
 21
3.7974472021
 31
0.0
  0
LINE
  5
1E8
330
1F
100
AcDbEntity
  8
0
  6
Continuous
 62
     7
370
     0
100
AcDbLine
 10
6.0393932624
 20
3.7974472021
 30
0.0
 11
6.011625018
 21
3.7896749201
 31
0.0
  0
LINE
  5
1E9
330
1F
100
AcDbEntity
  8
0
  6
Continuous
 62
     7
370
     0
100
AcDbLine
 10
6.011625018
 20
3.7896749201
 30
0.0
 11
5.9553771692
 21
3.9906331466
 31
0.0
  0
HATCH
  5
1EA
330
1F
100
AcDbEntity
  8
0
  6
Continuous
 62
     7
370
     0
100
AcDbHatch
 10
0.0
 20
0.0
 30
0.0
210
0.0
220
0.0
230
1.0
  2
ANSI31
 70
     0
 71
     0
 91
        1
 92
        0
 93
        5
 72
     1
 10
7.24692866714866
 20
2.829657608385735
 11
7.566928667148661
 21
2.829657608385735
 72
     1
 10
7.566928667148661
 20
2.829657608385735
 11
7.566928667148661
 21
4.054550751207999
 72
     1
 10
7.566928667148661
 20
4.054550751207999
 11
7.24692866714866
 21
4.054550751207999
 72
     1
 10
7.24692866714866
 20
4.054550751207999
 11
7.24692866714866
 21
3.449657608385734
 72
     1
 10
7.24692866714866
 20
3.449657608385734
 11
7.24692866714866
 21
2.829657608385735
 97
        0
 75
     0
 76
     1
 52
0.0
 41
1.0
 77
     0
 78
     1
 53
45.0
 43
0.0
 44
0.0
 45
-0.0883883476483184
 46
0.0883883476483184
 79
     0
 98
        1
 10
0.0
 20
0.0
  0
HATCH
  5
1EB
330
1F
100
AcDbEntity
  8
0
  6
Continuous
 62
     7
370
     0
100
AcDbHatch
 10
0.0
 20
0.0
 30
0.0
210
0.0
220
0.0
230
1.0
  2
ANSI31
 70
     0
 71
     0
 91
        1
 92
        0
 93
        9
 72
     1
 10
9.386928667148661
 20
2.829657608385735
 11
9.386928667148661
 21
3.149657608385736
 72
     1
 10
9.386928667148661
 20
3.149657608385736
 11
9.386928667148661
 21
5.649657608385737
 72
     1
 10
9.386928667148661
 20
5.649657608385737
 11
7.24692866714866
 21
5.649657608385737
 72
     1
 10
7.24692866714866
 20
5.649657608385737
 11
7.24692866714866
 21
4.344764465563472
 72
     1
 10
7.24692866714866
 20
4.344764465563472
 11
7.566928667148661
 21
4.344764465563472
 72
     1
 10
7.566928667148661
 20
4.344764465563472
 11
7.566928667148661
 21
5.329657608385736
 72
     1
 10
7.566928667148661
 20
5.329657608385736
 11
9.066928667148662
 21
5.329657608385736
 72
     1
 10
9.066928667148662
 20
5.329657608385736
 11
9.06692866714866
 21
2.829657608385735
 72
     1
 10
9.06692866714866
 20
2.829657608385735
 11
9.386928667148661
 21
2.829657608385735
 97
        0
 75
     0
 76
     1
 52
0.0
 41
1.0
 77
     0
 78
     1
 53
45.0
 43
0.0
 44
0.0
 45
-0.0883883476483184
 46
0.0883883476483184
 79
     0
 98
        1
 10
0.0
 20
0.0
  0
HATCH
  5
1EC
330
1F
100
AcDbEntity
  8
0
  6
Continuous
 62
     7
370
     0
100
AcDbHatch
 10
0.0
 20
0.0
 30
0.0
210
0.0
220
0.0
230
1.0
  2
ANSI31
 70
     0
 71
     0
 91
        1
 92
        0
 93
        8
 72
     1
 10
7.24692866714866
 20
4.105231476497737
 11
7.64692866714866
 21
4.105231476497738
 72
     2
 10
7.64692866714866
 20
3.897730125136515
 40
0.2075013513612226
 50
270.0000000000008
 51
360.0000000000008
 73
     0
 72
     1
 10
7.854430018509884
 20
3.897730125136515
 11
7.854430018509884
 21
2.597730125136515
 72
     1
 10
7.854430018509884
 20
2.597730125136515
 11
8.039427315787437
 21
2.597730125136515
 72
     1
 10
8.039427315787437
 20
2.597730125136515
 11
8.039427315787437
 21
3.897730125136515
 72
     2
 10
7.64692866714866
 20
3.897730125136515
 40
0.3924986486387776
 50
0.0
 51
90.0
 73
     1
 72
     1
 10
7.64692866714866
 20
4.290228773775293
 11
7.24692866714866
 21
4.290228773775293
 72
     1
 10
7.24692866714866
 20
4.290228773775293
 11
7.24692866714866
 21
4.105231476497737
 97
        0
 75
     0
 76
     1
 52
0.0
 41
1.0
 77
     0
 78
     1
 53
45.0
 43
0.0
 44
0.0
 45
-0.0883883476483184
 46
0.0883883476483184
 79
     0
 98
        1
 10
0.0
 20
0.0
  0
HATCH
  5
1ED
330
1F
100
AcDbEntity
  8
0
  6
Continuous
 62
     7
100
AcDbHatch
 10
0.0
 20
0.0
 30
0.0
210
0.0
220
0.0
230
1.0
  2
ANSI31
 70
     0
 71
     0
 91
        1
 92
        0
 93
        4
 72
     1
 10
4.92637866714866
 20
3.149657608385736
 11
4.92637866714866
 21
3.449657608385736
 72
     1
 10
4.92637866714866
 20
3.449657608385736
 11
2.526378667148661
 21
3.449657608385736
 72
     1
 10
2.526378667148661
 20
3.449657608385736
 11
2.526378667148661
 21
3.149657608385736
 72
     1
 10
2.526378667148661
 20
3.149657608385736
 11
4.92637866714866
 21
3.149657608385736
 97
        0
 75
     0
 76
     1
 52
0.0
 41
0.6666666667
 77
     0
 78
     1
 53
45.0
 43
0.0
 44
0.0
 45
-0.058925565098879
 46
0.058925565098879
 79
     0
 98
        1
 10
0.0
 20
0.0
  0
HATCH
  5
1EE
330
1F
100
AcDbEntity
  8
0
  6
Continuous
 62
     7
100
AcDbHatch
 10
0.0
 20
0.0
 30
0.0
210
0.0
220
0.0
230
1.0
  2
DOTS
 70
     0
 71
     0
 91
        1
 92
        0
 93
        4
 72
     1
 10
4.476378667148661
 20
5.199657608385737
 11
2.97637866714866
 21
5.199657608385737
 72
     1
 10
2.97637866714866
 20
5.199657608385737
 11
2.97637866714866
 21
4.199657608385736
 72
     1
 10
2.97637866714866
 20
4.199657608385736
 11
4.476378667148661
 21
4.199657608385736
 72
     1
 10
4.476378667148661
 20
4.199657608385736
 11
4.476378667148661
 21
5.199657608385737
 97
        0
 75
     0
 76
     1
 52
0.0
 41
1.0
 77
     0
 78
     1
 53
0.0
 43
0.0
 44
0.0
 45
0.03125
 46
0.0625
 79
     2
 49
0.0
 49
-0.0625
 98
        1
 10
0.0
 20
0.0
  0
HATCH
  5
1EF
330
1F
100
AcDbEntity
  8
0
  6
Continuous
 62
     7
100
AcDbHatch
 10
0.0
 20
0.0
 30
0.0
210
0.0
220
0.0
230
1.0
  2
ANSI31
 70
     0
 71
     0
 91
        1
 92
        0
 93
        4
 72
     1
 10
7.246928667148661
 20
3.149657608385735
 11
7.246928667148661
 21
2.829657608385735
 72
     1
 10
7.246928667148661
 20
2.829657608385735
 11
2.144928667148659
 21
2.829657608385735
 72
     1
 10
2.14492866714866
 20
2.829657608385735
 11
2.14492866714866
 21
3.149657608385735
 72
     1
 10
2.14492866714866
 20
3.149657608385735
 11
7.246928667148662
 21
3.149657608385735
 97
        0
 75
     0
 76
     1
 52
0.0
 41
0.4
 77
     0
 78
     1
 53
45.0
 43
0.0
 44
0.0
 45
-0.0353553390593274
 46
0.0353553390593274
 79
     0
 98
        1
 10
0.0
 20
0.0
  0
HATCH
  5
1F0
330
1F
100
AcDbEntity
  8
0
  6
Continuous
 62
     7
100
AcDbHatch
 10
0.0
 20
0.0
 30
0.0
210
0.0
220
0.0
230
1.0
  2
ANSI31
 70
     0
 71
     0
 91
        1
 92
        0
 93
        3
 72
     1
 10
7.246928667148661
 20
3.449657608385734
 11
7.246928667148661
 21
3.149657608385736
 72
     1
 10
7.246928667148661
 20
3.149657608385736
 11
6.946928667148659
 21
3.149657608385735
 72
     1
 10
6.946928667148659
 20
3.149657608385735
 11
7.246928667148661
 21
3.449657608385734
 97
        0
 75
     0
 76
     1
 52
0.0
 41
0.4
 77
     0
 78
     1
 53
45.0
 43
0.0
 44
0.0
 45
-0.0353553390593274
 46
0.0353553390593274
 79
     0
 98
        1
 10
0.0
 20
0.0
  0
HATCH
  5
1F1
330
1F
100
AcDbEntity
  8
0
  6
Continuous
 62
     7
100
AcDbHatch
 10
0.0
 20
0.0
 30
0.0
210
0.0
220
0.0
230
1.0
  2
ANSI31
 70
     0
 71
     0
 91
        1
 92
        0
 93
        5
 72
     1
 10
10.78692866714866
 20
3.149657608385735
 11
9.686928667148663
 21
3.149657608385735
 72
     1
 10
9.686928667148663
 20
3.149657608385735
 11
9.386928667148661
 21
3.449657608385734
 72
     1
 10
9.386928667148661
 20
3.449657608385734
 11
9.386928667148661
 21
2.829657608385735
 72
     1
 10
9.386928667148661
 20
2.829657608385735
 11
10.78692866714866
 21
2.829657608385735
 72
     1
 10
10.78692866714866
 20
2.829657608385735
 11
10.78692866714866
 21
3.149657608385735
 97
        0
 75
     0
 76
     1
 52
0.0
 41
0.4
 77
     0
 78
     1
 53
45.0
 43
0.0
 44
0.0
 45
-0.0353553390593274
 46
0.0353553390593274
 79
     0
 98
        1
 10
0.0
 20
0.0
  0
HATCH
  5
1F2
330
1F
100
AcDbEntity
  8
0
  6
Continuous
 62
     7
100
AcDbHatch
 10
0.0
 20
0.0
 30
0.0
210
0.0
220
0.0
230
1.0
  2
SOLID
 70
     1
 71
     0
 91
        1
 92
        0
 93
        4
 72
     1
 10
5.465565503345274
 20
3.852071115889032
 11
5.438988568174928
 21
3.844632279195474
 72
     1
 10
5.438988568174928
 20
3.844632279195474
 11
5.494856255347476
 21
3.645032266281097
 72
     1
 10
5.494856255347476
 20
3.645032266281097
 11
5.521433190517826
 21
3.652471102974656
 72
     1
 10
5.521433190517826
 20
3.652471102974656
 11
5.465565503345274
 21
3.852071115889032
 97
        0
 75
     0
 76
     1
 98
        1
 10
0.0
 20
0.0
  0
HATCH
  5
1F3
330
1F
100
AcDbEntity
  8
0
  6
Continuous
 62
     7
100
AcDbHatch
 10
0.0
 20
0.0
 30
0.0
210
0.0
220
0.0
230
1.0
  2
SOLID
 70
     1
 71
     0
 91
        1
 92
        0
 93
        4
 72
     1
 10
6.011625017958763
 20
3.789674920099451
 11
5.955377169233292
 21
3.990633146584368
 72
     1
 10
5.955377169233292
 20
3.990633146584368
 11
5.98314541367199
 21
3.998405428614718
 72
     1
 10
5.98314541367199
 20
3.998405428614718
 11
6.039393262397462
 21
3.797447202129802
 72
     1
 10
6.039393262397462
 20
3.797447202129802
 11
6.011625017958763
 21
3.789674920099451
 97
        0
 75
     0
 76
     1
 98
        1
 10
0.0
 20
0.0
  0
INSERT
  5
1FD
102
{ACAD_REACTORS
330
1FF
102
}
330
1F
100
AcDbEntity
  8
0
  6
Continuous
 62
     7
370
     0
100
AcDbBlockReference
  2
SW_NOTE_1
 10
3.3749870889
 20
6.8897637795
 30
0.0
  0
LEADER
  5
1FF
330
1F
100
AcDbEntity
  8
0
  6
Continuous
 62
     7
370
     0
100
AcDbLeader
  3
SLDDIMSTYLE0
 73
     2
 76
     3
 10
7.0441057598
 20
4.359596157
 30
0.0
 10
3.6249870889
 20
6.8897637795
 30
0.0
 10
3.3749870889
 20
6.8897637795
 30
0.0
340
1FD
  0
INSERT
  5
205
102
{ACAD_REACTORS
330
206
102
}
330
1F
100
AcDbEntity
  8
0
  6
Continuous
 62
     7
370
     0
100
AcDbBlockReference
  2
SW_NOTE_2
 10
1.4160622164
 20
4.9212598425
 30
0.0
  0
LEADER
  5
206
330
1F
100
AcDbEntity
  8
0
  6
Continuous
 62
     7
370
     0
100
AcDbLeader
  3
SLDDIMSTYLE0
 73
     2
 76
     3
 10
2.7263786671
 20
5.2996576084
 30
0.0
 10
1.6660622164
 20
4.9212598425
 30
0.0
 10
1.4160622164
 20
4.9212598425
 30
0.0
340
205
  0
MTEXT
  5
207
330
1F
100
AcDbEntity
  8
0
  6
Continuous
 62
     7
370
     0
100
AcDbMText
 10
0.342557963
 20
4.4775237388
 30
0.0
 40
0.0833333333
 41
0.0
 71
     1
 72
     1
  1
CONDENSER PAD
  7
SLDTEXTSTYLE0
 73
     1
 44
1.0
  0
LEADER
  5
208
330
1F
100
AcDbEntity
  8
0
  6
Continuous
 62
     7
370
     0
100
AcDbLeader
  3
SLDDIMSTYLE0
 76
     3
 10
2.6066647881
 20
3.4496576084
 30
0.0
 10
1.6175768977
 20
4.36852721
 30
0.0
 10
1.3675768977
 20
4.36852721
 30
0.0
  0
INSERT
  5
213
330
1F
100
AcDbEntity
  8
0
  6
Continuous
 62
     7
370
     0
100
AcDbBlockReference
  2
SW_NOTE_3
 10
10.4728288274
 20
3.8519898375
 30
0.0
  0
LEADER
  5
214
330
1F
100
AcDbEntity
  8
0
  6
Continuous
 62
     7
370
     0
100
AcDbLeader
  3
SLDDIMSTYLE0
 76
     2
 10
10.6639006729
 20
3.1496576084
 30
0.0
 10
10.4728288274
 20
3.8519898375
 30
0.0
  0
INSERT
  5
21B
102
{ACAD_REACTORS
330
21C
102
}
330
1F
100
AcDbEntity
  8
0
  6
Continuous
 62
     7
370
     0
100
AcDbBlockReference
  2
SW_NOTE_4
 10
4.0020929532
 20
5.871572088
 30
0.0
  0
LEADER
  5
21C
330
1F
100
AcDbEntity
  8
0
  6
Continuous
 62
     7
370
     0
100
AcDbLeader
  3
SLDDIMSTYLE0
 73
     2
 76
     3
 10
6.2337025229
 20
4.0437079619
 30
0.0
 10
4.2520929532
 20
5.871572088
 30
0.0
 10
4.0020929532
 20
5.871572088
 30
0.0
340
21B
  0
INSERT
  5
222
102
{ACAD_REACTORS
330
223
102
}
330
1F
100
AcDbEntity
  8
0
  6
Continuous
 62
     7
370
     0
100
AcDbBlockReference
  2
SW_NOTE_5
 10
8.8337341453
 20
7.2097668826
 30
0.0
  0
LEADER
  5
223
330
1F
100
AcDbEntity
  8
0
  6
Continuous
 62
     7
370
     0
100
AcDbLeader
  3
SLDDIMSTYLE0
 73
     2
 76
     3
 10
7.4972673996
 20
5.6496576084
 30
0.0
 10
8.5837341453
 20
7.2097668826
 30
0.0
 10
8.8337341453
 20
7.2097668826
 30
0.0
340
222
  0
INSERT
  5
22A
102
{ACAD_REACTORS
330
22B
102
}
330
1F
100
AcDbEntity
  8
0
  6
Continuous
 62
     7
370
     0
100
AcDbBlockReference
  2
SW_NOTE_6
 10
8.0288778558
 20
2.2836585082
 30
0.0
  0
LEADER
  5
22B
330
1F
100
AcDbEntity
  8
0
  6
Continuous
 62
     7
370
     0
100
AcDbLeader
  3
SLDDIMSTYLE0
 73
     2
 76
     3
 10
6.8812206629
 20
4.025284941
 30
0.0
 10
7.7788778558
 20
2.2836585082
 30
0.0
 10
8.0288778558
 20
2.2836585082
 30
0.0
340
22A
  0
INSERT
  5
232
102
{ACAD_REACTORS
330
233
102
}
330
1F
100
AcDbEntity
  8
0
  6
Continuous
 62
     7
370
     0
100
AcDbBlockReference
  2
SW_NOTE_7
 10
5.4500407277
 20
2.0557775106
 30
0.0
  0
LEADER
  5
233
330
1F
100
AcDbEntity
  8
0
  6
Continuous
 62
     7
370
     0
100
AcDbLeader
  3
SLDDIMSTYLE0
 73
     2
 76
     3
 10
6.0262658518
 20
3.7937728633
 30
0.0
 10
5.7000407277
 20
2.0557775106
 30
0.0
 10
5.4500407277
 20
2.0557775106
 30
0.0
340
232
  0
INSERT
  5
23A
102
{ACAD_REACTORS
330
23B
102
}
330
1F
100
AcDbEntity
  8
0
  6
Continuous
 62
     7
370
     0
100
AcDbBlockReference
  2
SW_NOTE_8
 10
9.0907063341
 20
6.157635468
 30
0.0
  0
LEADER
  5
23B
330
1F
100
AcDbEntity
  8
0
  6
Continuous
 62
     7
370
     0
100
AcDbLeader
  3
SLDDIMSTYLE0
 73
     2
 76
     3
 10
7.2311897152
 20
4.3418195769
 30
0.0
 10
8.8407063341
 20
6.157635468
 30
0.0
 10
9.0907063341
 20
6.157635468
 30
0.0
340
23A
  0
INSERT
  5
242
330
1F
100
AcDbEntity
  8
0
  6
Continuous
 62
     7
370
     0
100
AcDbBlockReference
  2
SW_NOTE_9
 10
6.5021721423
 20
6.2400605097
 30
0.0
  0
LEADER
  5
243
330
1F
100
AcDbEntity
  8
0
  6
Continuous
 62
     7
370
     0
100
AcDbLeader
  3
SLDDIMSTYLE0
 76
     2
 10
7.1328687613
 20
4.372605725
 30
0.0
 10
6.5021721423
 20
6.2400605097
 30
0.0
  0
INSERT
  5
24A
102
{ACAD_REACTORS
330
24B
102
}
330
1F
100
AcDbEntity
  8
0
  6
Continuous
 62
     7
370
     0
100
AcDbBlockReference
  2
SW_NOTE_10
 10
9.8858655599
 20
5.0279275435
 30
0.0
  0
LEADER
  5
24B
330
1F
100
AcDbEntity
  8
0
  6
Continuous
 62
     7
370
     0
100
AcDbLeader
  3
SLDDIMSTYLE0
 73
     2
 76
     3
 10
7.9394970732
 20
4.1593766748
 30
0.0
 10
9.6358655599
 20
5.0279275435
 30
0.0
 10
9.8858655599
 20
5.0279275435
 30
0.0
340
24A
  0
ENDSEC
  0
SECTION
  2
OBJECTS
  0
DICTIONARY
  5
C
330
0
100
AcDbDictionary
281
     1
  3
ACAD_GROUP
350
D
  3
ACAD_LAYOUT
350
1A
  3
ACAD_MLINESTYLE
350
17
  3
ACAD_PLOTSETTINGS
350
19
  3
ACAD_PLOTSTYLENAME
350
E
  0
DICTIONARY
  5
D
102
{ACAD_REACTORS
330
C
102
}
330
C
100
AcDbDictionary
281
     1
  0
DICTIONARY
  5
1A
102
{ACAD_REACTORS
330
C
102
}
330
C
100
AcDbDictionary
281
     1
  3
Layout1
350
1E
  3
Layout2
350
26
  3
Model
350
22
  0
DICTIONARY
  5
17
102
{ACAD_REACTORS
330
C
102
}
330
C
100
AcDbDictionary
281
     1
  3
Standard
350
18
  0
DICTIONARY
  5
19
102
{ACAD_REACTORS
330
C
102
}
330
C
100
AcDbDictionary
281
     1
  0
ACDBDICTIONARYWDFLT
  5
E
102
{ACAD_REACTORS
330
C
102
}
330
C
100
AcDbDictionary
281
     1
  3
Normal
350
F
100
AcDbDictionaryWithDefault
340
F
  0
LAYOUT
  5
1E
102
{ACAD_REACTORS
330
1A
102
}
330
1A
100
AcDbPlotSettings
  1

  2
none_device
  4

  6

 40
0.0
 41
0.0
 42
0.0
 43
0.0
 44
0.0
 45
0.0
 46
0.0
 47
0.0
 48
0.0
 49
0.0
140
0.0
141
0.0
142
1.0
143
1.0
 70
   688
 72
     0
 73
     0
 74
     5
  7

 75
    16
147
1.0
148
0.0
149
0.0
100
AcDbLayout
  1
Layout1
 70
     1
 71
     1
 10
0.0
 20
0.0
 11
12.0
 21
9.0
 12
0.0
 22
0.0
 32
0.0
 14
1.0000000000E+20
 24
1.0000000000E+20
 34
1.0000000000E+20
 15
-1.0000000000E+20
 25
-1.0000000000E+20
 35
-1.0000000000E+20
146
0.0
 13
0.0
 23
0.0
 33
0.0
 16
1.0
 26
0.0
 36
0.0
 17
0.0
 27
1.0
 37
0.0
 76
     0
330
1B
  0
LAYOUT
  5
26
102
{ACAD_REACTORS
330
1A
102
}
330
1A
100
AcDbPlotSettings
  1

  2
none_device
  4

  6

 40
0.0
 41
0.0
 42
0.0
 43
0.0
 44
0.0
 45
0.0
 46
0.0
 47
0.0
 48
0.0
 49
0.0
140
0.0
141
0.0
142
1.0
143
1.0
 70
   688
 72
     0
 73
     0
 74
     5
  7

 75
    16
147
1.0
148
0.0
149
0.0
100
AcDbLayout
  1
Layout2
 70
     1
 71
     2
 10
0.0
 20
0.0
 11
0.0
 21
0.0
 12
0.0
 22
0.0
 32
0.0
 14
0.0
 24
0.0
 34
0.0
 15
0.0
 25
0.0
 35
0.0
146
0.0
 13
0.0
 23
0.0
 33
0.0
 16
1.0
 26
0.0
 36
0.0
 17
0.0
 27
1.0
 37
0.0
 76
     0
330
23
  0
LAYOUT
  5
22
102
{ACAD_REACTORS
330
1A
102
}
330
1A
100
AcDbPlotSettings
  1

  2
none_device
  4

  6

 40
0.0
 41
0.0
 42
0.0
 43
0.0
 44
0.0
 45
0.0
 46
0.0
 47
0.0
 48
0.0
 49
0.0
140
0.0
141
0.0
142
1.0
143
1.0
 70
  1712
 72
     0
 73
     0
 74
     0
  7

 75
     0
147
1.0
148
0.0
149
0.0
100
AcDbLayout
  1
Model
 70
     1
 71
     0
 10
0.0
 20
0.0
 11
11.0
 21
8.5
 12
0.0
 22
0.0
 32
0.0
 14
0.0
 24
0.0
 34
0.0
 15
11.0
 25
8.5
 35
0.0
146
0.0
 13
0.0
 23
0.0
 33
0.0
 16
1.0
 26
0.0
 36
0.0
 17
0.0
 27
1.0
 37
0.0
 76
     0
330
1F
331
29
  0
MLINESTYLE
  5
18
102
{ACAD_REACTORS
330
17
102
}
330
17
100
AcDbMlineStyle
  2
Standard
 70
     0
  3

 62
   256
 51
90.0
 52
90.0
 71
     2
 49
0.5
 62
   256
  6
BYLAYER
 49
-0.5
 62
   256
  6
BYLAYER
  0
ACDBPLACEHOLDER
  5
F
102
{ACAD_REACTORS
330
E
102
}
330
E
  0
ENDSEC
  0
EOF
